PrimaNota.ru - самый крупный в мире бесплатный архив песенных текстов, аккордов, табулатур и нот


Misc Computer Games - Atlantis Underwater Tycoon Soundtrack - Part 1 - бас-таба, видео

Регистрация Запомнить меня
Войти через:  Facebook Google Twitter Vk Yandex Mail.ru

Misc Computer Games - Atlantis Underwater Tycoon Soundtrack - Part 1 - бас-таба, видео

Печатать
Просмотров: 99
Atlantis Underwater Tycoon (Soundtrack: Part 1) - Bass Tab

Tuning: Standard

Note: This is the bass tab for the first part of the 
soundtrack for the 2003 PC game, Atlantis Underwater Tycoon.

[0:03-0:26]
[x2]
G|------------------------------------------------------------|
D|-----------2------------------------------------------------|
A|------1-----------5------4-------------7------4------5------|
E|-1--------------------------------5-------------------------|

[0:50-1:37]
[x4]
G|------------------------------------------------------------|
D|-----------2------------------------------------------------|
A|------1-----------5------4-------------7------4------5------|
E|-1--------------------------------5-------------------------|

[2:01-2:48]
[x4]
G|------------------------------------------------------------|
D|-----------2------------------------------------------------|
A|------1-----------5------4------------------7------4------5-|
E|-1--------------------------------0----5--------------------|

[2:49-3:23]
G|------------------------------------------------------------|
D|------------------------------------------------------------|
A|---------------------------------3~------3~-----------------|
E|-5~------3~------5~------3~---------------------------------|

[3:24-4:39]
[x6]
G|------------------------------------------------------------|
D|------------------------------------------------------------|
A|--------2------3--------------------------------------------|
E|-5--------------------3-------------------------------------|

If there's any confusion, questions, or advice on how to 
improve it, please post a comment. Have fun playing, and 
please rate! -Rarrlow
Добавлено: 28.08.2015
Другие материалы по этой песне:
  • Аккорды и текст

Страница создана 28.08.2015
http://primanota.ru/misc-computer-games/atlantis-underwater-tycoon-soundtrack-part-1-chords.htm
Привет, Гость.
Предлагаем пройти революционный курс по гитаре.
Подарок от PrimaNota.Ru, забирай!