PrimaNota.ru - самый крупный в мире бесплатный архив песенных текстов, аккордов, табулатур и нот


Misc Computer Games - Legend Of Zelda Majoras Mask - Sonata Of Awakening - бас-таба, видео

Регистрация Запомнить меня
Войти через:  Facebook Google Twitter Vk Yandex Mail.ru

Misc Computer Games - Legend Of Zelda Majoras Mask - Sonata Of Awakening - бас-таба, видео

Печатать
Просмотров: 104
Legend of Zelda: majoras mask - sonata of awakening

Tabbed by: Ashy (XxThreeCheersxX)
E-mail: burdickash@gmail.com

Tuning: Drop D

G|------------------------------------------------------------|
D|-0---0---------------------12----12-------------------------|
A|---2---2-----0~---------------14----14------12~-------------|
D|----------0-------0~--------------------12------------------|

G|------------------------------------------------|
D|--0---0-----------------------------------------|
A|----2---2----0~------------0~-------------------|
E|----------0-------0~------------5--2--4~--------|

Happy playing!

| /  slide up
| \  slide down
| h  hammer-on
| p  pull-off
| ~  vibrato
| +  harmonic
| x  Mute note
===============================================================================
Добавлено: 14.06.2015
Другие материалы по этой песне:
  • Аккорды и текст

Страница создана 14.06.2015
http://primanota.ru/misc-computer-games/legend-of-zelda-majoras-mask-sonata-of-awakening-chords.htm
Привет, Гость.
Предлагаем пройти революционный курс по гитаре.
Подарок от PrimaNota.Ru, забирай!