PrimaNota.ru - самый крупный в мире бесплатный архив песенных текстов, аккордов, табулатур и нот


Misc Computer Games - Legend Of Zelda Majoras Mask - Shop - бас-таба, видео

Регистрация Запомнить меня
Войти через:  Facebook Google Twitter Vk Yandex Mail.ru

Misc Computer Games - Legend Of Zelda Majoras Mask - Shop - бас-таба, видео

Печатать
Просмотров: 75
Legend of Zelda: Majoras Mask - Shop

Tabbed by: Ashy (XxThreeCheersxX)
E-mail: burdickash@gmail.com

Tuning: Standard

The timing is a bit awkward, so listen carefully.  Happy playing!

Part I
G|----------------------------------------------------------------------------|
D|------5------------5-----5------------5--3--0-------------------------------|
A|-3--3-----------5----------2--5-------------------2--5-------5----------0-2-|
E|---------3----3---------------------3-----------3----------3----3-----3-----|

G|-----------------------------------------------------------------------------------------|
D|----5---5---------5--------5---5-3-----0-----0-----5---5-3----0--------------5--5--------|
A|-3--------------3-------2----------------2-2------------------------2--3--3-------3-3-3--|
E|----------3----------3--------------------------3----------------3-----------------------|

Part II
G|-------------------------------------------------------------------------------------|
D|---------3---------3----------2---------2----------0---------0------2-------------5--|
A|-----3----------3---------3----------3---------2----------------3--------------3-----|
E|-1--------------------3--------------------3--------------3-------------3------------|

G|---------------------------------------------------------------------------------|
D|---------3---------3----------2---------5----------0---------0-------------------|
A|-----3--------------------3----------3---------2----------------3-3-3--3--3-3-3--|
E|-1--------------1-----3--------------------3--------------3----------------------|

| /  slide up
| \  slide down
| h  hammer-on
| p  pull-off
| ~  vibrato
| +  harmonic
| x  Mute note
===============================================================================
Добавлено: 14.06.2015
Другие материалы по этой песне:
  • Аккорды и текст

Страница создана 14.06.2015
http://primanota.ru/misc-computer-games/legend-of-zelda-majoras-mask-shop-chords.htm
Привет, Гость.
Предлагаем пройти революционный курс по гитаре.
Подарок от PrimaNota.Ru, забирай!