PrimaNota.ru - самый крупный в мире бесплатный архив песенных текстов, аккордов, табулатур и нот


Misc Computer Games - Legend Of Zelda Wind Waker - Dragon Roost Island - бас-таба, видео

Регистрация Запомнить меня
Войти через:  Facebook Google Twitter Vk Yandex Mail.ru

Misc Computer Games - Legend Of Zelda Wind Waker - Dragon Roost Island - бас-таба, видео

Печатать
Просмотров: 40
Legend of Zelda: wind waker - Dragon roost island

Tabbed by: Ashy (XxThreecheersxX)
E-mail: burdickash@gmail.com

Tuning: Drop D

Listen closely for better timing.  Happy playing!

come in at 0:26)
G|----------------|
D|-5--------------|
A|------6---------|
D|-----------8----|

Part I
G|---------------------------------------|
D|---------5-------3----------5----7-----|
A|------5-------3----------5----5-----5--| x 2
D|-5---------3--------5------------------|

Part II
G|----------------------------3-------------------------------------------------------------------|
D|---------5-------3-------3----------3----------6-------6----------5------------------3-------3--|
A|------5-------3-----1---------1--1----------6-------6----------5-------5----------3-------3-----|
D|-5---------3---------------------------6---------6--------5---------5-----5--3---------3--------|

G|--------------------------------5-7-5-----5--------------------------|
D|---------1-3-1---1-0---------5--------5---------------6-8-6---6------|
A|------1--------1--------3---------------3----------6--------6-----6--|
D|-1------------------------------------------8-6-----------------6----|

Part I

Part III
G|---------------------------------------------------------------7-------7-----|
D|------8-------8----------7-------7----------5-------5-----5---------5--------|
A|-6---------6--------5---------5--------3---------3----------------5-------5--|
D|---------8-------6----------7-------7----------5-------5---------------------|

G|---------------------------------------|
D|------8-------8----------7-------7-----|
A|-6---------6--------5---------5--------|
D|---------8-------6----------7-------7--|

G|---------5-7-5-------5-------------------------------------------|
D|------5--------5------------------6-8--6--------------6----------|
A|-3----------------3------------6----------6--------6-------6-----|
D|------------------------8-6-----------------6-6---------6-----6--|

Clean, rinse, repeat.

| /  slide up
| \  slide down
| h  hammer-on
| p  pull-off
| ~  vibrato
| +  harmonic
| x  Mute note
===============================================================================
Добавлено: 21.08.2015
Другие материалы по этой песне:
  • Аккорды и текст

Страница создана 21.08.2015
http://primanota.ru/misc-computer-games/legend-of-zelda-wind-waker-dragon-roost-island-2-chords.htm
Привет, Гость.
Предлагаем пройти революционный курс по гитаре.
Подарок от PrimaNota.Ru, забирай!