PrimaNota.ru - самый крупный в мире бесплатный архив песенных текстов, аккордов, табулатур и нот


Misc Computer Games - Paper Mario - Nice To Meet You - бас-таба, видео

Регистрация Запомнить меня
Войти через:  Facebook Google Twitter Vk Yandex Mail.ru

Misc Computer Games - Paper Mario - Nice To Meet You - бас-таба, видео

Печатать
Просмотров: 169
Уроки эстрадного вокала в Санкт-Петербурге
Paper Mario - Nice to Meet You

Tabbed by: ashy (xxthreeCheersxX)
E-mail: burdickash@gmail.com

Tuning: standard

Part I
G|------------------------------|
D|------------------------------|
A|-3---------1--1--1--3~--------|
E|------3-----------------------|

Part II
G|------------------------------------------------------------------------------|
D|------------------------------------------------------------------------------|
A|-3----3-------------3----3-------------3----3-------------3----3------------0-|
E|-----------3--3--3------------3--3--3------------3--3--3------------3--3--3---|

Part III
G|--------------------------------------|
D|--------------------------------------|
A|-1--------3--3-----3----3----1--0-----|
E|----------------3------------------3--|

Part IV
G|-----------------------------------------------------------------------------|
D|---------------------------------------------------------------------3--3----|
A|-----------1--1--1--3----3------------------------1--1--1--3----3------------|
E|-1----1------------------------1--1--1--1----1-------------------------------|

Repeat back to Part II.  Happy playing!

| /  slide up
| \  slide down
| h  hammer-on
| p  pull-off
| ~  vibrato
| +  harmonic
| x  Mute note
===============================================================================
Добавлено: 21.08.2015
Другие материалы по этой песне:
  • Аккорды и текст

Страница создана 21.08.2015
http://primanota.ru/misc-computer-games/paper-mario-nice-to-meet-you-chords.htm
Привет, Гость.
Предлагаем пройти революционный курс по гитаре.
Подарок от PrimaNota.Ru, забирай!