PrimaNota.ru - самый крупный в мире бесплатный архив песенных текстов, аккордов, табулатур и нот


Misc Computer Games - Paper Mario - Goomba Village - бас-таба, видео

Регистрация Запомнить меня
Войти через:  Facebook Google Twitter Vk Yandex Mail.ru

Misc Computer Games - Paper Mario - Goomba Village - бас-таба, видео

Печатать
Просмотров: 162
Уроки эстрадного вокала в Санкт-Петербурге
Paper Mario - Goomba village

Tabbed by: Ashy (XxThreeCheersxX)
E-mail: burdickash@gmail.com

Tuning: Standard

Part I
G|-----------------------|
D|------2----------2-----|
A|-3----------3----------| x 6
E|---------3----------3--|

G|-------------------------------------------------------------|
D|-------------------------------------------------------------|
A|-------------------------------------------------------------| (brief pause)
E|-2~--------3--------2~--------3------------------------------|

G|----------------------------------------------------------------------------------------|
D|------5--5-------5--5--------------------------------------------------5--5-------5--5--|
A|-3----------3---------------3--3-------3--3-------5--5------5--5--3----------3----------|
E|-----------------------1----------1----------3----------3-------------------------------|

Happy playing!

| /  slide up
| \  slide down
| h  hammer-on
| p  pull-off
| ~  vibrato
| +  harmonic
| x  Mute note
===============================================================================
Добавлено: 28.08.2015
Другие материалы по этой песне:
  • Аккорды и текст

Страница создана 28.08.2015
http://primanota.ru/misc-computer-games/paper-mario-goomba-village-chords.htm
Привет, Гость.
Предлагаем пройти революционный курс по гитаре.
Подарок от PrimaNota.Ru, забирай!