PrimaNota.ru - самый крупный в мире бесплатный архив песенных текстов, аккордов, табулатур и нот


Misc Computer Games - Mother - Eight Melodies - бас-таба, видео

Регистрация Запомнить меня
Войти через:  Facebook Google Twitter Vk Yandex Mail.ru

Misc Computer Games - Mother - Eight Melodies - бас-таба, видео

Печатать
Просмотров: 130
Уроки эстрадного вокала в Санкт-Петербурге
Earthbound / Mother - Eight Melodies

Tabbed by: Ashy (XxThreeCheersxX)
E-mail: burdickash@gmail.com

Tuning: Standard

G|----------------------------19--18--16-----------------|
D|---------16--19-------------------------16--19~--------|
A|-17--19----------19~-----------------------------------|
E|-------------------------------------------------------|

G|-16--18--19--------------------------------------------|
D|-------------19~-------------17--16--------------------|
A|--------------------17~--------------17----------------|
E|-----------------------------------------17~-----------|

G|-------------------------------------------------------------|
D|----------------------17~----16--17--19--16--14--16--17--14--|
A|-14~----16~----17~-------------------------------------------|
E|-------------------------------------------------------------|

G|---------------------------------------------------------|
D|-----17--16----------------------------------------------|
A|-14----------17--19~----16~----17~--------19--17~--------|
E|--------------------------------------17-----------------|

Happy playing! (if you want you can also drop everything an octave by subtracting 12 from each number,
some people might not have basses that have that many frets)

| /  slide up
| \  slide down
| h  hammer-on
| p  pull-off
| ~  vibrato
| +  harmonic
| x  Mute note
===============================================================================
Добавлено: 21.08.2015
Другие материалы по этой песне:
  • Аккорды и текст

Страница создана 21.08.2015
http://primanota.ru/misc-computer-games/mother-eight-melodies-chords.htm
Привет, Гость.
Предлагаем пройти революционный курс по гитаре.
Подарок от PrimaNota.Ru, забирай!