PrimaNota.ru - самый крупный в мире бесплатный архив песенных текстов, аккордов, табулатур и нот


Misc Computer Games - Pokemon Red Blue Yellow - Pallet Town - бас-таба, видео

Регистрация Запомнить меня
Войти через:  Facebook Google Twitter Vk Yandex Mail.ru

Misc Computer Games - Pokemon Red Blue Yellow - Pallet Town - бас-таба, видео

Печатать
Просмотров: 120
Pokemon RBY - Pallet Town

Tabbed by: Ashy (XxThreeCheersxX)
E-mail: burdickash@gmail.com

Tuning: Standard

G|---------0-------------------------------------------------------|
D|-0---------2-4-2-0-----------------------------------------------|
A|---3-2-0--------------2-----0-2-3~-----------0-2----3-2-0~-------|
E|------------------------3-3--------------2-3---------------------|

G|---------0-----0------------------------------------------|
D|-0---------4-4---2----0-0~---------------0----------------|
A|---3-2-0-------------------------3-2-0-----3-2-0----------|
E|---------------------------------------3---------3~-------|

G|------------------------------------------------------------------|
D|------------------------------------------------------------------|
A|---0-2-3~-------5----3-2~---------0-2-3--3--5----3-2~-------2-0---|
E|-3------------------------------3-------------------------------3-|

G|-----------------------------------------------------------------|
D|-----------------------------------------------------------------|
A|-0~----------2--0~-------------------------2--2~-------0~--------|
E|----------3--------------3--0--2~-------3------------------------|

Repeat ad infinitum.  Happy playing!

| /  slide up
| \  slide down
| h  hammer-on
| p  pull-off
| ~  vibrato
| +  harmonic
| x  Mute note
===============================================================================
Добавлено: 28.08.2015
Другие материалы по этой песне:
  • Аккорды и текст

Страница создана 28.08.2015
http://primanota.ru/misc-computer-games/pokemon-red-blue-yellow-pallet-town-chords.htm
Привет, Гость.
Предлагаем пройти революционный курс по гитаре.
Подарок от PrimaNota.Ru, забирай!