PrimaNota.ru - самый крупный в мире бесплатный архив песенных текстов, аккордов, табулатур и нот


Misc Computer Games - Legend Of Zelda Majoras Mask - Milk Bar - бас-таба, видео

Регистрация Запомнить меня
Войти через:  Facebook Google Twitter Vk Yandex Mail.ru

Misc Computer Games - Legend Of Zelda Majoras Mask - Milk Bar - бас-таба, видео

Печатать
Просмотров: 82
Legend of Zelda: Majoras Mask - Milk Bar

Tabbed by: Ashy (XxThreeCheersxX)
E-mail: burdickash@gmail.com

Tuning: Standard

Intro/Pick-up to Part I
G|-------|
D|-----0-|
A|-1-3---|
E|-------|

Part I
G|------0-3---------2-5----3--3-3---------------------|
D|-1--1--------3--3---------------3--5---5-3-5-3-0----|
A|----------------------------------------------------|
E|----------------------------------------------------|

G|------0-3---------2-5----3------0-2-3--2-2-2-2-2-2-2-|
D|-1--1--------3--3-----------3-3----------------------|
A|-----------------------------------------------------|
E|-----------------------------------------------------|

G|------0-3---------2-5----3--3-3---------------------|
D|-1--1--------3--3---------------3--5---5-3-5-3-0----|
A|----------------------------------------------------|
E|----------------------------------------------------|

G|------0-3---------2-5----3-------3-------3--|
D|-1--1--------3--3-----------3-3-----3-3-----|
A|--------------------------------------------|
E|--------------------------------------------|

Part II
G|-----------------------------------------------------------------|
D|-0-0-0-0-0-0-0-0-0-0-0-0-2-2-4-4-5-5-5-5-5-5-5-5-5-5-5-5-5-5-3-3-|
A|-----------------------------------------------------------------|
E|-----------------------------------------------------------------|

G|--------------------------------------------------------------|
D|-2-2--2-2-2--2------------0-2-3-3-3-3-3-3-3-3-3-3-3-3-3-3-2-2-|
A|---------------3-3--3-3-3-------------------------------------|
E|--------------------------------------------------------------|

G|-------------------------------------------------------------2-2-|
D|-0-0-0-0-0-0-0-0-0-0-0-0-2-2-4-4-5-5-5-5-5-5-5-5-5-5-5-5-5-5-----|
A|-----------------------------------------------------------------|
E|-----------------------------------------------------------------|

G|-5-5-5-5-5-5-5-5-----------------3-3-3-3-3-3-3-3-0-0--0--|
D|-----------------3-3-3-3-3-3-3-3-------------------------|
A|---------------------------------------------------------|
E|---------------------------------------------------------|

Happy playing!  This is a fun piece, enjoy!

| /  slide up
| \  slide down
| h  hammer-on
| p  pull-off
| ~  vibrato
| +  harmonic
| x  Mute note
===============================================================================
Добавлено: 14.06.2015
Другие материалы по этой песне:
  • Аккорды и текст

Страница создана 14.06.2015
http://primanota.ru/misc-computer-games/legend-of-zelda-majoras-mask-milk-bar-2-chords.htm
Привет, Гость.
Предлагаем пройти революционный курс по гитаре.
Подарок от PrimaNota.Ru, забирай!