PrimaNota.ru - самый крупный в мире бесплатный архив песенных текстов, аккордов, табулатур и нот


Misc Computer Games - Legend Of Zelda Majoras Mask - Mayors House - бас-таба, видео

Регистрация Запомнить меня
Войти через:  Facebook Google Twitter Vk Yandex Mail.ru

Misc Computer Games - Legend Of Zelda Majoras Mask - Mayors House - бас-таба, видео

Печатать
Просмотров: 87
Legend of Zelda: Majoras Mask - Mayor's House

Tabbed by: Ashy (XxThreeCheersxX)
E-mail: burdickash@gmail.com

Tuning: Standard

G|-----------------------------------------------------|
D|-----------------------------------------------------|
A|-3----3-2------3----3-2-----3----3-2------3--2--3----| x 2
E|-------------3-----------3--------------3------------|

(Played softly)
G|-----------------------------------------------------------------|
D|-3-3-3-3-3-3-3-3-3-3-3-3-3-3-3-3---------------------------------|
A|---------------------------------3-3-3-3-3-3-3-3-3-3-3-3-3-3-3-3-| x 2
E|-----------------------------------------------------------------|

G|-----------------------------------------------------------------|
D|-3-3-3-3-3-3-3-3-3-3-3-3-3-3-3-3-5-5-5-5-5-5-5-5-5-5-5-5-5-0-5---|
A|-----------------------------------------------------------------|
E|-----------------------------------------------------------------|

Happy playing!

| /  slide up
| \  slide down
| h  hammer-on
| p  pull-off
| ~  vibrato
| +  harmonic
| x  Mute note
===============================================================================
Добавлено: 14.06.2015
Другие материалы по этой песне:
  • Аккорды и текст

Страница создана 14.06.2015
http://primanota.ru/misc-computer-games/legend-of-zelda-majoras-mask-mayors-house-chords.htm
Привет, Гость.
Предлагаем пройти революционный курс по гитаре.
Подарок от PrimaNota.Ru, забирай!