PrimaNota.ru - самый крупный в мире бесплатный архив песенных текстов, аккордов, табулатур и нот


Misc Computer Games - Legend Of Zelda Majoras Mask - Majoras Theme - бас-таба, видео

Регистрация Запомнить меня
Войти через:  Facebook Google Twitter Vk Yandex Mail.ru

Misc Computer Games - Legend Of Zelda Majoras Mask - Majoras Theme - бас-таба, видео

Печатать
Просмотров: 137
Уроки эстрадного вокала в Санкт-Петербурге
Legend of Zelda: Majoras Mask - Majoras Theme

Tabbed by: Ashy (XxThreeCheersxX) 
E-mail: burdickash@gmail.com

Tuning: Standard

G|------------------------------------------------------------------10--9~----------------|
D|-11~--------10~--------9--8~----------------11~--------10~------------------------------|
A|-------------------11-----------------------------------------11------------------------|
E|----------------------------------------------------------------------------------------|

G|-------------------------------------------------------------------------------------------|
D|-11~--------10~--------9--8~---------------------------------------------------------------|
A|-------------------11-----------------------9~----8--11--12~----11--14--13~----------------|
E|-------------------------------------------------------------------------------------------|

G|--------------------------------------------------------------------------|
D|--------------------------------------------------------------------------|
A|---------------------------------------------------------2~---------------|
E|-5~--------4~--------1~---------------5~-------4~-------------------------|

Happy playing!

| /  slide up
| \  slide down
| h  hammer-on
| p  pull-off
| ~  vibrato
| +  harmonic
| x  Mute note
===============================================================================
Добавлено: 14.06.2015
Другие материалы по этой песне:
  • Аккорды и текст

Страница создана 14.06.2015
http://primanota.ru/misc-computer-games/legend-of-zelda-majoras-mask-majoras-theme-chords.htm
Привет, Гость.
Предлагаем пройти революционный курс по гитаре.
Подарок от PrimaNota.Ru, забирай!