PrimaNota.ru - самый крупный в мире бесплатный архив песенных текстов, аккордов, табулатур и нот


Misc Computer Games - Legend Of Zelda Majoras Mask - Great Fairy Fountain - бас-таба, видео

Регистрация Запомнить меня
Войти через:  Facebook Google Twitter Vk Yandex Mail.ru

Misc Computer Games - Legend Of Zelda Majoras Mask - Great Fairy Fountain - бас-таба, видео

Печатать
Просмотров: 152
Уроки эстрадного вокала в Санкт-Петербурге
Legend of Zelda: Majoras Mask - Great Fairy Fountain

Tabbed by: Ashy (XxThreeCheersxX)
E-mail: burdickash@gmail.com

Tuning: Standard

(After the harp intro)
G|-3~--------2~----2~----------------------------|
D|-----------------------5~----5~----3~----3~----|
A|-----------------------------------------------|
E|-----------------------------------------------|

G|-3~----3~----2~----7~----------------5~----5~----|
D|-------------------------5~----5~----------------|
A|-------------------------------------------------|
E|-------------------------------------------------|

Happy playing!

| /  slide up
| \  slide down
| h  hammer-on
| p  pull-off
| ~  vibrato
| +  harmonic
| x  Mute note
===============================================================================
Добавлено: 15.06.2015
Другие материалы по этой песне:
  • Аккорды и текст

Страница создана 15.06.2015
http://primanota.ru/misc-computer-games/legend-of-zelda-majoras-mask-great-fairy-fountain-chords.htm
Привет, Гость.
Предлагаем пройти революционный курс по гитаре.
Подарок от PrimaNota.Ru, забирай!