PrimaNota.ru - самый крупный в мире бесплатный архив песенных текстов, аккордов, табулатур и нот


Misc Computer Games - Legend Of Zelda Majoras Mask - Elegy Of Emptiness - бас-таба, видео

Регистрация Запомнить меня
Войти через:  Facebook Google Twitter Vk Yandex Mail.ru

Misc Computer Games - Legend Of Zelda Majoras Mask - Elegy Of Emptiness - бас-таба, видео

Печатать
Просмотров: 117
Уроки эстрадного вокала в Санкт-Петербурге
Legend of Zelda: Majoras Mask - Elegy of Emptiness

Tabbed by: Ashy (XxThreeCheersxX)
E-mail: burdickash@gmail.com

Tuning: Standard

G|-----------------7--------|
D|-7~----9--7----7----9~----|
A|-------------8------------| x 2
E|--------------------------|

G|---------------------------------------------------------------------|
D|-7~----9--7------------7~----9--7--------------5~----4~----2~--------|
A|-------------7~--------------------9~----6~--------------------------|
E|---------------------------------------------------------------------|

Happy playing!

| /  slide up
| \  slide down
| h  hammer-on
| p  pull-off
| ~  vibrato
| +  harmonic
| x  Mute note
===============================================================================
Добавлено: 15.06.2015
Другие материалы по этой песне:
  • Аккорды и текст

Страница создана 15.06.2015
http://primanota.ru/misc-computer-games/legend-of-zelda-majoras-mask-elegy-of-emptiness-chords.htm
Привет, Гость.
Предлагаем пройти революционный курс по гитаре.
Подарок от PrimaNota.Ru, забирай!