PrimaNota.ru - самый крупный в мире бесплатный архив песенных текстов, аккордов, табулатур и нот


Misc Computer Games - Fallout New Vegas - Mysterious Magnum Track - таба, видео

Регистрация Запомнить меня
Войти через:  Facebook Google Twitter Vk Yandex Mail.ru

Misc Computer Games - Fallout New Vegas - Mysterious Magnum Track - таба, видео

Печатать
Просмотров: 198
-------------------------------------------------------------------------------
                   FALLOUT: NEW VEGAS - Mysterious Magnum Track
-------------------------------------------------------------------------------
Tabbed by: what.you.doing.
E-mail: ryanengland@live.com

Tuning: E A D G B D

In the game "Fallout: New Vegas", this track can be heard in two different 
scenarios. It can be heard by acquiring the "Mysterious Magnum" .44 Magnum
Revolver, or through acquiring the "Mysterious Stranger" player perk.

For both cases of the sound effects, the timing is different, 
so I have tabbed both versions below.

----------------------------------------------------
   "MYSTERIOUS MAGNUM" .44 MAGNUM REVOLVER TRACK
----------------------------------------------------

Drawing the weapon:

D|------------------|
B|------------------|
G|------------------|
D|------------------|
A|-------------5-1~-|
E|-0--3----0-3------|

Sheathing the weapon:

e|----1~-|
B|---0---|
G|--0----|
D|-x-----|
A|-------|
E|-------|

----------------------------------------------------
         "MYSTERIOUS STRANGER" PLAYER PERK
----------------------------------------------------

D|------------------|----1--|
B|------------------|---0---|
G|------------------|--0----|
D|------------------|-x-----|
A|-------------5-1~-|-------|
E|-0--3----0-3------|-------|
 \________v________/ \__v__/
   (Plays when     (Plays every
    Stranger         time the 
    Appears)         stranger 
                     shoots a 
                      round)

************************************

|~ vibrato

***********************************
Добавлено: 14.07.2015
Другие материалы по этой песне:
  • Аккорды и текст

Страница создана 14.07.2015
http://primanota.ru/misc-computer-games/fallout-new-vegas-mysterious-magnum-track-chords.htm
Привет, Гость.
Предлагаем пройти революционный курс по гитаре.
Подарок от PrimaNota.Ru, забирай!