PrimaNota.ru - самый крупный в мире бесплатный архив песенных текстов, аккордов, табулатур и нот


Misc Computer Games - Dragon Valor Theme - таба, видео

Регистрация Запомнить меня
Войти через:  Facebook Google Twitter Vk Yandex Mail.ru

Misc Computer Games - Dragon Valor Theme - таба, видео

Печатать
Просмотров: 64
Уроки эстрадного вокала в Санкт-Петербурге
DRAGON VALOR MAIN THEME ( the avenger )

☆☆☆☆☆☆☆☆☆☆☆☆☆☆☆☆☆☆☆☆☆☆☆☆☆☆☆☆☆☆☆☆☆☆☆☆☆☆☆☆☆☆☆☆☆☆☆

Sorry guys but I just got the chorus :( 
(I got listening the song, so, if is something wrong, please, write a comment)

☆☆☆☆☆☆☆☆☆☆☆☆☆☆☆☆☆☆☆☆☆☆☆☆☆☆☆☆☆☆☆☆☆☆☆☆☆☆☆☆☆☆☆☆☆☆☆

E/-----------------------------------------------------------------|
A|-----------------------------------------------------------------|
D|-----------------------------------------------------------------|
G|-7-9-10-7------------10-10--9~------------7~---------------------|
B|-----------------8-10--8--10----10~-8~-10~--------------8-10~-8~~|    1° part of the chorus
e\--------------8-7-------------------------------5-7-8-7~---------|


E/--------------------------------------------------------------|
A|--------------------------------------------------------------|
D|--------------------------------------------------------------|
G|-7-9-10-7---------10-10--9~-----------------------------------|
B|--------------8-10--8--10----10~-8~-10/15-15-17-18-17-15-13/15|   2° part of the chorus
e\----------8-7-------------------------------------------------|

♢♢♢♢♢♢♢♢♢♢♢♢♢♢♢♢♢♢♢♢♢
|                                |
| ~ is a symbol for vibration.   |
| / is a symbol for slide        |
|                                |
♢♢♢♢♢♢♢♢♢♢♢♢♢♢♢♢♢♢♢♢♢

If you listen to the song, becomes easier to play 
(to get a notion for how to play)

Contact me if needed:
giovanni7games@hotmail.com
Добавлено: 14.06.2015
Другие материалы по этой песне:
  • Аккорды и текст

Страница создана 14.06.2015
http://primanota.ru/misc-computer-games/dragon-valor-theme-chords.htm
Привет, Гость.
Предлагаем пройти революционный курс по гитаре.
Подарок от PrimaNota.Ru, забирай!