PrimaNota.ru - самый крупный в мире бесплатный архив песенных текстов, аккордов, табулатур и нот


Misc Computer Games - League Of Legends - Ekko Theme - таба, видео

Регистрация Запомнить меня
Войти через:  Facebook Google Twitter Vk Yandex Mail.ru

Misc Computer Games - League Of Legends - Ekko Theme - таба, видео

Печатать
Просмотров: 90
-------------------------------------------------------------------------------
                             Ekko Seconds - Riot Games
-------------------------------------------------------------------------------
Tabbed by: Jazep Kristap Kovalevskis
E-mail: Smoker14@inbox.lv

Heres a video of me playing it to use as reference (it should sound like that up to speed... hell maybe
better ;) - : https://www.youtube.com/watch?v=Hi6CZg2nISo
feel free to check it out for picking patterns timing and all that good stuff


Tuning: D# A# D# G# C# D#  (its basically dadgad Sharp tuning with the B string tuned UP to a C instead
of down to an A)

I recommend using distortion, slight delay and reverb for best results as far as amp setting go

************************************

| /   slide up
| \   slide down
| h   hammer-on
| p   pull-off
| ~   vibrato
| +   harmonic
| x   Mute note
| b   Bend
| pb  Pre-bend
| br  Bend release
| pbr Pre-bend release
| brb Bend release bend
/ pm  Palm mute

************************************


                                ~Piano Intro Section~

Guitar 1 plays harmonics (Lightly touch the string with your fretting hand without pressing down too hard
on the fret number and remember to pick lightly and let the notes ring)
While Guitar 2 Plays palm muted rhythm in the background


Gtr. 1
D#|---------------------------------------------------------------------------| x1
C#|--------------12--12----------12-------------------------------------------|
G#|----------------12--12------12--12-----------------------------------------|   all harmonics
D#|----------5------------7~7~~-------7~7~~-----------------------------------|
A#|-----------5---------------------------------------------------------------|
D#|-5~~~~--5------------------------------------------------------------------|


Gtr. 2
D#|------------------------------------------0-0------------------------------| x1
C#|------------------------------------------0-0------------------------------|
G#|------------------------------------------0-0------------------------------|    pm meaning palm muted
D#|------------------------------------------3-5--0----------0----------------|
A#|------------------------------------------3-5--0----------0----------------|
D#|------------------------------------------3-5--0-0pm-0pm--0----------------|


Gtr. 1
D#|---------------------------------------------------------------------------| x1
C#|--------------12--12----------12------------------5-4-2--------------------|
G#|----------------12--12------12--12-----------------------------------------|   all harmonics besides
D#|----------5------------7~7~~-------7~~~~-----------------------------------|   last 3 lead in notes
A#|-----------5---------------------------------------------------------------|        (5-4-2)
D#|-5~~~~--5------------------------------------------------------------------|


Gtr. 2
D#|---------------------------------------------------------------------------|  x1
C#|---------------------------------------------------------------------------|
G#|---------------------------------------------------------------------------|   all palm muted
D#|--------------0-3-0-0-3-0--------------------------------------------------|
A#|--------------0-3-0-0-3-0--------------------------------------------------|
D#|--------------0-3-0-0-3-0--------------------------------------------------|

                             Riff 1
Gtr. 1 and Gtr. 2
D#|---0-------0--------0-------0~~---0-----0----0----0------------------------|  x1
C#|---2-------2--------2-------2~~---2-----2----2----2------------------------|
G#|---2-------2--------2-------2~~---2-----2----2----2------------------------| palm mute/chug the open string
D#|---0-------0--------0-------0~~---0-----0----0----0------------------------| between hitting the chord
A#|0----0-0---0--0-0---0------------------------------------------------------|
D#|0----0-0---0--0-0---0--0-0------0---0-0--0-0---0---------------------------|
   pm   pm       pm       pm       pm  pm   pm    pm


Gtr. 1 and Gtr. 2
D#|---------------------------------------------------------------------------|  x2
C#|---------------------------------------------------------------------------|
G#|---7-------7--------7-------7~~---7-----7----7----7------------------------| palm mute/chug the open string
D#|---7-------7--------7-------7~~---7-----7----7----7------------------------| between hitting the chord
A#|0--5-0-0---5--0-0---5-------5~~---5-----5----5----5------------------------|
D#|0----0-0------0-0------0-0------0---0-0--0-0---0---------------------------|
   pm   pm       pm       pm       pm  pm   pm    pm


Gtr. 1 and Gtr. 2
D#|---------------------------------------------------------------------------|  x1
C#|---------------------------------------------------------------------------|
G#|---7-------7--------7-------7~~---7-----7----7----7---5-5-5----------------| palm mute/chug the open string
D#|---7-------7--------7-------7~~---7-----7----7----7---5-5-5----------------| between hitting the chord
A#|0--5-0-0---5--0-0---5-------5~~---5-----5----5----5---3-3-3----------------|
D#|0----0-0------0-0------0-0------0---0-0--0-0---0----0----------------------|
   pm   pm       pm       pm       pm  pm   pm    pm


Gtr. 2 or bass guitar
D#|--------------------------------------------------------------------------------------------------------|
C#|--------------------------------------------------------------------------------------------------------|
G#|2-------2-------2-----2-----0-------0-------0------0-0/0-------0-------0-0-0/0---------0----------10-10~|
D#|0--0-0--0--0-0--0--0--0--0--3--3-3--3--3-3--3--3---3-3/8--8-8--8--8-8--8-8-8/10--------10---------10-10~|
A#|0--0-0--0--0-0--0--0--0--0--3--3-3--3--3-3--3--3---3-3/8--8-8--8--8-8--8-8-8/10--------10---------10-10~|
D#|0--0-0--0--0-0--0--0--0--0--3--3-3--3--3-3--3--3---3-3/8--8-8--8--8-8--8-8-8/10-10-10--10--10-10--10-10~|
      pm      pm      pm    pm    pm      pm      pm         pm      pm            pm pm      pm pm



D#|----------------------------------------------------------------------------------------------------------|
C#|----------------------------------------------------------------------------------------------------------|
G#|-----------------------------------------------------------------------------------------------7-7-7-7----|
D#|0--0-0--0--0-0--0--0~~--3--3-3--3--3-3--3--3~~/8-------8-------5-------5-------0-------0-------7-7-7-7----|
A#|0--0-0--0--0-0--0--0~~--3--3-3--3--3-3--3--3~~/8-------8-------5-------5-------0-------0-------5-5-5-5----|
D#|0--0-0--0--0-0--0--0~~--3--3-3--3--3-3--3--3~~/8--8-8--8--8-8--5--5-5--5--5-5--0--0-0--0--0-0-------------|
      pm      pm              pm      pm



--------------------------------Bass thingy--------------------------------------------------

Gtr. 2 (pretty sure its played on bass but can also be played on guitar)
D#|---------------------------------------------------------------------------|
C#|---------------------------------------------------------------------------|
G#|---------------------------------------------------------------------------|
D#|-----------------------3------------------5-3------------------------------|
A#|-------3-5------------3--------3-5------3-----0-5-3~-----------------------|
D#|-0-3-5-----3~-0-3-5-0----0-3-5-----3~-5------------------------------------|



------------------------Main Guitar Lick-----------------------------------------------------

Gtr. 1 
D#|---------------------------------------------------------------------------|
C#|-------------------------------------------7-5-----------------------------|
G#|-------5-7-----------------------5-7-----5-----0--7-5~~--------------------|
D#|-0-5-7-----3~-0-5-7-0--3---0-5-7-----5-7-----------------------------------|
A#|----------------------3----------------------------------------------------|
D#|---------------------------------------------------------------------------|


--------------------Back to main riff----------------------------------------------------------
Some slight differences here and there but its pretty much the same as riff 1

Riff 2(lel)

NOTE: Lead Guitar Can add harmonics instead of doubling the rhythm guitar in this section

Gtr. 2
D#|---------------------------------------------------------------------------|  x1
C#|---------------------------------------------------------------------------|
G#|---7-------7--------7-------7~~---7-----7----7----7------------------------| palm mute/chug the open string
D#|---7-------7--------7-------7~~---7-----7----7----7------------------------| between hitting the chord
A#|0--5-0-0---5--0-0---5-------5~~---5-----5----5----5------------------------|
D#|0----0-0------0-0------0-0------0---0-0--0-0---0---------------------------|
   pm   pm       pm       pm       pm  pm   pm    pm


Gtr. 1 and Gtr. 2
D#|---------------------------------------------------------------------------|  x1
C#|---------------------------------------------------------------------------|
G#|---7-------7--------7-------7~~---7-----7----7----5-5-5--------------------| palm mute/chug the open string
D#|---7-------7--------7-------7~~---7-----7----7----5-5-5--------------------| between hitting the chord
A#|0--5-0-0---5--0-0---5-------5~~---5-----5----5----3-3-3--------------------|
D#|0----0-0------0-0------0-0------0---0-0--0-0---0---------------------------|
   pm   pm       pm       pm       pm  pm   pm    pm


Gtr. 2
D#|---------------------------------------------------------------------------|  x1
C#|---------------------------------------------------------------------------|
G#|---7-------7--------7-------7~~---7-----7----7----7------------------------| palm mute/chug the open string
D#|---7-------7--------7-------7~~---7-----7----7----7------------------------| between hitting the chord
A#|0--5-0-0---5--0-0---5-------5~~---5-----5----5----5------------------------|
D#|0----0-0------0-0------0-0------0---0-0--0-0---0---------------------------|
   pm   pm       pm       pm       pm  pm   pm    pm


Gtr. 1 and Gtr. 2
D#|---------------------------------------------------------------------------|  x1
C#|---------------------------------------------------------------------------|
G#|---7-------7--------7-------7~~---7-----7----7----7------------------------| palm mute/chug the open string
D#|---7-------7--------7-------7~~---7-----7----7----7--0~~~~~~~~-------------| between hitting the chord
A#|0--5-0-0---5--0-0---5-------5~~---5-----5----5----5--0~~~~~~~~-------------|
D#|0----0-0------0-0------0-0------0---0-0--0-0---0-0---0~~~~~~~~-------------|
   pm   pm       pm       pm       pm  pm   pm    pm



----------------------- The sneaky fast melodic(ish} breakdown ------------------------


Gtr. 2
D#|--------------------------------------------0--0---------------------------| x1
C#|--------------------------------------------0--0---------------------------|
G#|--------------------------------------------0--0---------------------------|
D#|--------------------------------------------3--5---------------------------|
A#|-/5-5~--0-0-5-0-/3-3~-3--0-0~---3---0-0~----3--5---------------------------|
D#|---------------------5-5-----5-5--5---------3--5---------------------------|


Gtr. 2
D#|---------------------------------------------------------------------------| x1
C#|---------------------------------------------------------------------------|
G#|---------------------------------------------------------------------------| Pull whammy bar down at last 
D#|-0--0--0--0----------------------------------------------------------------| Note ( bbbbb means whammy bar 
A#|-0--0--0--0----5-0-3--3--------3---0-0------3--3-----0--0--0bbbbbbbb-------|        down}
D#|-0--0--0--0--0-------0-0--5--5---5-----5--5------5-------------------------|
       pm    pm         PM                                    whammy bar down


IMPORTANT NOTE - :
As you're pulling your whammy bar back up after diving it down on the last note above
 hit the 6th fret of your D# string (lowest string) with your middle finger and fret the note (hold it ringing)

Gtr. 2
D#|---------------------------------------------------------------------------|  Repeat for many bars
C#|---------------------------------------------------------------------------|
G#|---------------------------------------------------------------------------|
D#|---------------------------------------------------------------------------|
A#|---------------------------------------------------------------------------|
D#|####6-----x--6b-x--6b--x--6b-x-6-x-6-x-------------------------------------|
Whammy bar up

Gtr. 1
D#|---------------------------------------------------------------------------| after a while this comes in
C#|---------------------------------------------------------------------------|
G#|---------------------------------------------------------------------------|
D#|--+5-x-x-+5-x-x-+5-x-x-+5-x-x-+5-x-+5-x------------------------------------|Repeats in the background until
A#|---------------------------------------------------------------------------|the end of this section
D#|---------------------------------------------------------------------------|

Note: lead guitar Gtr. 1 plays harmonics but while muting the strings keep your fretting finger the same way
it is while playing the harmonics and palm mute only slightly to get the best percussive sound possible



                                      ..... after a while play



Gtr. 2
D#|---------------------------------------------------------------------------| repeat some more..
C#|---------------------------------------------------------------------------|
G#|---------------------------------------------------------------------------| just have to memorize it from
D#|---------------------------------------------------------------------------| playing along to the track
A#|--5b-x--5b-x--5b-x--5b-x-5-x-5-x-------------------------------------------|
D#|--6b-x--6b-x--6b-x--6b-x-6-x-6-x-------------------------------------------|


Gtr. 3
D#|---------------------------------------------------------------------------| Then this comes in
C#|---------------------------------------------------------------------------|
G#|---------------------------------------------------------------------------| Harmonic notes with delay
D#|--+5////+3-----------------------------------------------------------------|
A#|---------------------------------------------------------------------------| pick 7 times
D#|---------------------------------------------------------------------------| Slide finger up slowly

Note: slide slowly while picking the first 6 times and on the 7th there should be a noticeable jump difference
in pitch and the harmonic you're looking to hit should be slightly behind the 3rd fret




---------------------------------Breakdown melody section-------------------------------

Gtr. 2
D#|---------------------------------------------------------------------------| x1
C#|---------------------------------------------------------------------------|
G#|---------------------------------------------------------------------------|
D#|---------------------------------------------------------------------------|
A#|/5--0--3--5------------3--5---3--------------------------------------------|
D#|/0----------5~~~------------5---5/7~~~--0~~--------------------------------|

Gtr. 1
D#|-------+12~~---------------------------------------------------------------| x1
C#|---------+12~~~------------------------------------------------------------|
G#|---------------------------------------------------------------------------| harmonics
D#|---------------------------------------------------------------------------|  let ring until the notes die
A#|---------------------------------------------------------------------------|
D#|---------------------------------------------------------------------------|


Gtr. 2
D#|---------------------------------------------------------------------------|
C#|---------------------------------------------------------------------------|
G#|---------------------------------------------------------------------------|
D#|---------------------------------------------------------------------------|
A#|/5--0--3--5---3--5---------------------------------------------------------|
D#|/0----------5-------5-4--3~~~~~--------------------------------------------|

Gtr. 1
D#|---------+12~~-------------------------------------------------------------|
C#|-----------+12~~-----------------------------------------------------------|
G#|---------------------------------------------------------------------------|
D#|--------------------------------------------+5-+5-+5-+5-+5-+5--------------|
A#|---------------------------------------------------------------------------|
D#|---------------------------------------------------------------------------|



-------------------------------- The grand finale -----------------------------------
In this section you basically play the main lick again but this time around using each note 2 times instead :)
if this proves to be tricky use an effect to compensate such as phaze delay or fuzz



Gtr. 1 
D#|---------------------------------------------------------------------------|
C#|---------------------------------------------------------------------------|
G#|-------------5-5-7-7-------------------------------------------------------|
D#|-0-0-5-5-7-7---------3-3--0-0-5-5-7-7-0-0---3------------------------------|
A#|-------------------------------------------3-------------------------------|
D#|---------------------------------------------------------------------------|


Gtr. 1
D#|---------------------------------------------------------------------------|
C#|----------------------------------7-7--5-----------------------------------|
G#|-------------5-5-7-7----------7-7--------0--7-5----------------------------|
D#|-0-0-5-5-7-7---------3-3--5-5--------------------------0~~~~~~~~~~~~~~~~~~~|
A#|-------------------------------------------------------0~~~~~~~~~~~~~~~~~~~|
D#|-------------------------------------------------------0~~~~~~~~~~~~~~~~~~~|
                                                              Whammy bar down


As you're raising your tremolo arm back up hit the 5th fret harmonic with your middle finger
once again on the lowest string D# and let it ring out until it kind of dies down in volume
Also try to mute the other strings as you hit the harmonic


Gtr. 1 and Gtr. 2
D#|---------------------------------------------------------------------------|
C#|---------------------------------------------------------------------------|
G#|---------------------------------------------------------------------------|
D#|0~~~~x---------------------------------------------------------------------|
A#|0~~~~x---------------------------------------------------------------------|
D#|0~~~~/+5~~~~~~~~~~~~~~~~~~~~~~~~~~~~~~~------------------------------------|
Whammy bar up


------------------------------------- The time Rewind Menu sound----------------------------

Gtr. 2
D#|-0--0--0-x-x---------0--x--------------------------------------------------|
C#|-x--x--x-x-x---------0--x--------------------------------------------------|
G#|/7--7--7/5-5---------2--x--------------------------------------------------|
D#|-0--0--0/0-0---------0--x--------------------------------------------------|
A#|-x--x--x-x-x---------0--x--------------------------------------------------|
D#|/8--8--8/5-5---------0--x--------------------------------------------------|

End last chord on an Upstroke





      AS AN ADDED BONUS;
  from the seconds trailer there are some slight variations of the music in parts so ill show you
those as well


The Music at the part where ekko gets temporarily pwned by banes cousins supa stronk EUW kick

Gtr. 1 
D#|---------------------------------------------------------------------------| Alternate Pick this
C#|-11-11-11-11-11-11-10-10-6-6-6-6-13-13-13-13-9-9-9-9-9-9-9-9---------------|
G#|---------------------------------------------------------------------------|
D#|---------------------------------------------------------------------------|
A#|---------------------------------------------------------------------------|
D#|---------------------------------------------------------------------------|


The Music at the bit where ekko goes jk i have ult and does a little taunt with his sword

Gtr. 1 and Gtr. 2
D#|---------------------------------------------------------------------------|
C#|----------------------------5~---------------------------------------------|
G#|-------7-5-------------7-5----7--------------------------------------------|
D#|-5-6-7-----3/5/3--5-6-7----------------------------------------------------|
A#|---------------------------------------------------------------------------|
D#|---------------------------------------------------------------------------|


Ekko is a great champion and the music here kicks ass :) Gj rito
Thank you for using my tab to learn this awesome song and enjoy playing ekko
Also this is the first time ive ever had to tab anything so sorry about the delay to those of you who
have been waiting a while for me to do this tab :(


************************************

| /   slide up
| \   slide down
| h   hammer-on
| p   pull-off
| ~   vibrato
| +   harmonic
| x   Mute note
| b   Bend
| pb  Pre-bend
| br  Bend release
| pbr Pre-bend release
| brb Bend release bend
/ pm  Palm mute

************************************
Добавлено: 13.04.2016
Другие материалы по этой песне:
  • Аккорды и текст

Страница создана 13.04.2016
http://primanota.ru/misc-computer-games/league-of-legends-ekko-theme-chords.htm
Привет, Гость.
Предлагаем пройти революционный курс по гитаре.
Подарок от PrimaNota.Ru, забирай!