PrimaNota.ru - самый крупный в мире бесплатный архив песенных текстов, аккордов, табулатур и нот


Misc Computer Games - Poly Bridge - Track 3 - таба, видео

Регистрация Запомнить меня
Войти через:  Facebook Google Twitter Vk Yandex Mail.ru

Misc Computer Games - Poly Bridge - Track 3 - таба, видео

Печатать
Просмотров: 192
Уроки эстрадного вокала в Санкт-Петербурге
-------------------------------------------------------------------------------
                          Track 3 - Polybridge Soundtrack
-------------------------------------------------------------------------------
Tabbed by: Elliot Kempson
E-mail: elliotk25@gmail.com

Tuning:EADGBe

e|------------------------------------------------------------------------------|
B|------------------------------12---12/14-------------14-----------------------|
G|--------------9---11/13---11----------------------13-14---14--13--------------|
D|--------------9-----------13-------------14----------14-----------------------|
A|---------9h11-------------14-------------14--16-------------------------------|
E|-12--12-----------------------------------------------------------------------|


NOTE: I do not own Poly bridge or the song, I'm just a fan :)
I don't own the video either, but here it is: https://youtu.be/f4-pitkxPLw
************************************

| /   slide up
| \   slide down
| h   hammer-on
| p   pull-off
| ~   vibrato
| +   harmonic
| x   Mute note
| b   Bend
| pb  Pre-bend
| br  Bend release
| pbr Pre-bend release
| brb Bend release bend

************************************
Добавлено: 13.04.2016
Другие материалы по этой песне:
  • Аккорды и текст

Страница создана 13.04.2016
http://primanota.ru/misc-computer-games/poly-bridge-track-3-chords.htm
Привет, Гость.
Предлагаем пройти революционный курс по гитаре.
Подарок от PrimaNota.Ru, забирай!