PrimaNota.ru - самый крупный в мире бесплатный архив песенных текстов, аккордов, табулатур и нот


Misc Computer Games - Payday 2 - Master Plan - таба, видео

Регистрация Запомнить меня
Войти через:  Facebook Google Twitter Vk Yandex Mail.ru

Misc Computer Games - Payday 2 - Master Plan - таба, видео

Печатать
Просмотров: 147
-------------------------------------------------------------------------------
                 Master Plan (Payday 2 OST) - Simon Viklund
-------------------------------------------------------------------------------
Tabbed by: Dylan Skypiercer
E-mail: dylanscott7988@gmail.com

Tuning: Standard

full delay setting on amp w/ reverb
NOTE: all notes are vibrato in lead guitar
intro

lead:
e|------------------------------------------------------------------------------|
B|----7h8p7---------------------------------------------------------------------|
G|--9--------9------------------------------------------------------------------|
D|-9----------------------------------------------------------------------------|
A|7-----------------------------------------------------------------------------|
E|------------------------------------------------------------------------------|

slide down neck


Lead riff 1 (verse 1)
e|------------------------------------------------------------------------------|
B|------------------------------------------------------------------------------|
G|9>---12-11>----9>----7---8>---------------------------------------------------|
D|------------------------------------------------------------------------------|
A|------------------------------------------------------------------------------|
E|------------------------------------------------------------------------------|

after 3 times it switches to riff 2. then back to 1 two times and back to riff 2. it alternates occasionally
riff 2
e|------------------------------------------------------------------------------|
B|------------------------------------------------------------------------------|
G|9>---12-11>----9>----7---6>---------------------------------------------------|
D|------------------------------------------------------------------------------|
A|------------------------------------------------------------------------------|
E|------------------------------------------------------------------------------|


Bass riff 1 (repeats)
G|------------------------
D|------------------------
A|------------------------
E|10h12-10h12-10h12-0

rhythm  
e|-----------
B|-----------
G|-----------
D|-----------
A|-----------
E|0>--0>---- repeat (pretty easy)
expect more soon


************************************

| >   let ring
| /   slide up
| \   slide down
| h   hammer-on
| p   pull-off
| ~   vibrato
| +   harmonic
| x   Mute note
| b   Bend
| pb  Pre-bend
| br  Bend release
| pbr Pre-bend release
| brb Bend release bend

************************************
Добавлено: 13.04.2016
Другие материалы по этой песне:
  • Аккорды и текст

Страница создана 13.04.2016
http://primanota.ru/misc-computer-games/payday-2-master-plan-chords.htm
Привет, Гость.
Предлагаем пройти революционный курс по гитаре.
Подарок от PrimaNota.Ru, забирай!