PrimaNota.ru - самый крупный в мире бесплатный архив песенных текстов, аккордов, табулатур и нот


Misc Computer Games - Metal Gear Solid V - Quiets Theme Humming Track - таба

Регистрация Запомнить меня
Войти через:  Facebook Google Twitter Vk Yandex Mail.ru

Misc Computer Games - Metal Gear Solid V - Quiets Theme Humming Track - таба

Печатать
Просмотров: 98
-------------------------------------------------------------------------------
     Quiet's Theme (Humming Track) - METAL GEAR SOLID V: THE PHANTOM PAIN
-------------------------------------------------------------------------------
Tabbed by: MisterKfishy

IMPORTANT - These were tabbed when only the humming track of Quiet's Theme was revealed (and when it was 
assumed to be part of 'Sins of the Father'), these are NOT the tabs that follow the vocal lines. However, 
the vocal tabs are VERY similar so with a bit of experimentation, you might be able to take them out for
yourself.

I don't know how the timing on the UG tabs work so
FOR THE TIMING, PLEASE REFER TO MY COVER - https://soundcloud.com/kabirisharsingh/quiets-theme


Tuning: Standard (EADGBe)


Chords: 

[D A Bm A] x8

e|--------------------------------------------------------------------------------------------------|
B|---------3----3-------2----2--------3----3--------2-----2-----------------------------------------|
G|---------2----2-------2----2--------4----4--------2-----2-----------------------------------------|
D|---------0--------------------------4-------------------------------------------------------------|
A|----------------------0-------------2-------------0-----------------------------------------------|
E|--------------------------------------------------------------------------------------------------|

[G A Bm A] x2

e|---------3----3-----------------------------------------------------------------------------------|
B|---------3----3-------2----2--------3----3-------2-----2------------------------------------------|
G|---------0------------2----2--------4----4-------2-----2------------------------------------------|
D|---------0--------------------------4-------------------------------------------------------------|
A|---------2------------0-------------2------------0------------------------------------------------|
E|---------3----------------------------------------------------------------------------------------|

[G Dm F C] x2

e|---------3-3--3-3-----1-1--1-1------1-1--1-1-----0-0--0-0-----------------------------------------|
B|---------3-3--3-3-----3-3--3-3------1-1--1-1-----1----1-------------------------------------------|
G|---------0----0-------2----2--------2----2-------0----0-------------------------------------------|
D|---------0----0-------0----0--------3----3-------2----2-------------------------------------------|
A|---------2----2---------------------3----3-------3----3-------------------------------------------|
E|---------3----3---------------------1----1--------------------------------------------------------|



Tabs:

e|--------------------------------------------------------------------------------------------------|
B|-----2----3~-------3/5----3-3~----------------------------2----3~-------3/5----3-3~---------------|
G|--------------------------------------------------------------------------------------------------|
D|--------------------------------------------------------------------------------------------------|
A|--------------------------------------------------------------------------------------------------|
E|--------------------------------------------------------------------------------------------------|

e|--------------5------------------------------------------2--3-2-----------------------------------|
B|-----2----3~-------3/5----3-3~-------------------------5----------------3/5----3-3~---------------|
G|--------------------------------------------------------------------------------------------------|
D|--------------------------------------------------------------------------------------------------|
A|--------------------------------------------------------------------------------------------------|
E|--------------------------------------------------------------------------------------------------|

e|--------------------------------------------------------------------------------------------------|
B|-----2---2h3~------3/5----3-3-----------------------------2---2h3~------3/5----3-3----------------|
G|---------------2----------------------------------------------------2-----------------------------|
D|--------------------------------------------------------------------------------------------------|
A|--------------------------------------------------------------------------------------------------|
E|--------------------------------------------------------------------------------------------------|

e|--------------5-----------------------------------------2---3-2-----------------------------------|
B|-----2---2h3~------3/5----3-3-------------------------5-----------------3/5----3-3~---------------|
G|--------------------------------------------------------------------2-----------------------------|
D|--------------------------------------------------------------------------------------------------|
A|--------------------------------------------------------------------------------------------------|
E|--------------------------------------------------------------------------------------------------|

e|--------------------------------3/5----2----------------------------------------------------------|
B|-----2---2h3~---------2---3-2-3----------5----------------2---2h3------3/5----5/7-----3h5---------|
G|---------------------------------------------------------------------2------2-------2-------------|
D|--------------------------------------------------------------------------------------------------|
A|--------------------------------------------------------------------------------------------------|
E|--------------------------------------------------------------------------------------------------|

e|-------------3--2--2h3-------------------1-----------------------3/5--6--5~----3\1/3--------------|
B|-----3--2--3-----------------3--1--3--1-----1/3~---------3--1--3-----------------------1-1-1------|
G|--------------------------------------------------------------------------------------------------|
D|--------------------------------------------------------------------------------------------------|
A|--------------------------------------------------------------------------------------------------|
E|--------------------------------------------------------------------------------------------------|

e|-------------3--1--1h3-------------------1-----------------------3/5--6--5~----3\1/3--------------|
B|-----3--1--3-----------------3--1--3--1-----1/3~---------3--1--3-----------------------1-1-1------|
G|--------------------------------------------------------------------------------------------------|
D|--------------------------------------------------------------------------------------------------|
A|--------------------------------------------------------------------------------------------------|
E|--------------------------------------------------------------------------------------------------|


************************************

| /   slide up
| \   slide down
| h   hammer-on
| p   pull-off
| ~   vibrato
| +   harmonic
| x   Mute note
| b   Bend
| pb  Pre-bend
| br  Bend release
| pbr Pre-bend release
| brb Bend release bend

************************************

Please feel free to submit any corrections in the comments
Добавлено: 13.04.2016
Другие материалы по этой песне:
  • Аккорды и текст

Страница создана 13.04.2016
http://primanota.ru/misc-computer-games/metal-gear-solid-v-quiets-theme-humming-track-chords.htm
Привет, Гость.
Предлагаем пройти революционный курс по гитаре.
Подарок от PrimaNota.Ru, забирай!