PrimaNota.ru - самый крупный в мире бесплатный архив песенных текстов, аккордов, табулатур и нот


Misc Computer Games - Pokemon-Battle Rival O R A S - таба, видео

Регистрация Запомнить меня
Войти через:  Facebook Google Twitter Vk Yandex Mail.ru

Misc Computer Games - Pokemon-Battle Rival O R A S - таба, видео

Печатать
Просмотров: 46
-------------------------------------------------------------------------------
                             Battle! Brendan/May (OR/AS) - Pokemon Games
-------------------------------------------------------------------------------
Tabbed by:Endersteve461
E-mail:darksonic24@yahoo.com

This is that amazing rival battle song we all love from Omega Ruby and Alpha Sapphire. 

Tuning:Standard

Intro

e|---------------------------------------------------------------------------|
B|----------------------10-----------------------13--------------------------|
G|--------------10--12-------------------10--12------------------------------|
D|--10------10---------------10------10--------------------------------------|
A|------12-----------------------12------------------------------------------|
E|---------------------------------------------------------------------------|

e|--------------13--15--17--------------13--15--20---------------------------|
B|--13--10--13--------------13--10--13---------------------------------------|
G|---------------------------------------------------------------------------|
D|---------------------------------------------------------------------------|
A|---------------------------------------------------------------------------|
E|---------------------------------------------------------------------------|

Main Riff

e|--------------------------15--18--17--15-----------------------------------|
B|--13------16--15--13--16------------------18--16---------------------------|
G|---------------------------------------------------------------------------|
D|------15-------------------------------------------------------------------|
A|---------------------------------------------------------------------------|
E|---------------------------------------------------------------------------|

e|----------18--22--18--------------11--10--8--11----------------------------|
B|--15--18--------------18--15--11-------------------------------------------|
G|---------------------------------------------------------------------------|
D|---------------------------------------------------------------------------|
A|---------------------------------------------------------------------------|
E|---------------------------------------------------------------------------|

e|------------------------------10--11--10--11--13---------------------------|
B|--18--15------16--15--11--13-----------------------------------------------|
G|----------15---------------------------------------------------------------|
D|---------------------------------------------------------------------------|
A|---------------------------------------------------------------------------|
E|---------------------------------------------------------------------------|

e|--15-------------------------------13------13--15--------------------------|
B|------16--13---16--15--13--15--16------16----------------------------------|
G|---------------------------------------------------------------------------|
D|---------------------------------------------------------------------------|
A|---------------------------------------------------------------------------|
E|---------------------------------------------------------------------------|

e|--15-------------------------------13--15--17--20--------------------------|
B|------16--13---16--15--13--15--16------------------------------------------|
G|---------------------------------------------------------------------------|
D|---------------------------------------------------------------------------|
A|---------------------------------------------------------------------------|
E|---------------------------------------------------------------------------|

e|--17--18--20--20---22-22--20-20--------------------------------------------|
B|---------------------------------------------------------------------------|
G|---------------------------------------------------------------------------|
D|---------------------------------------------------------------------------|
A|---------------------------------------------------------------------------|
E|---------------------------------------------------------------------------|

e|---------------------------------------------------------------------------|
B|--11--18--14--12--14--15--18--14---12--14--15--18--14---12--11--12---------|
G|--------------------------------------------------------------------2--3---|
D|---------------------------------------------------------------------------|
A|---------------------------------------------------------------------------|
E|---------------------------------------------------------------------------|

e|---------------------------------------------------------------------------|
B|--11--11--12--11--9--12--11--11--12--11--9--12-----------------------------|
G|---------------------------------------------------------------------------|
D|---------------------------------------------------------------------------|
A|---------------------------------------------------------------------------|
E|---------------------------------------------------------------------------|

e|---------------------------------------------------------------------------|
B|--11--9--12--9--11--6--9--4--11--9--12--9--11--14--12--11------------------|
G|---------------------------------------------------------------------------|
D|---------------------------------------------------------------------------|
A|---------------------------------------------------------------------------|
E|---------------------------------------------------------------------------|

e|---------------------------------------------------------------------------|
B|--13-13-13-13-13--13--11--9--8--9--11--11--16------------------------------|
G|---------------------------------------------------------------------------|
D|---------------------------------------------------------------------------|
A|---------------------------------------------------------------------------|
E|---------------------------------------------------------------------------|

e|---------------------------------------------------------------------------|
B|--13--1--3--4---13--11--9--11--3--6--4-------------------------------------|
G|---------------------------------------------------------------------------|
D|---------------------------------------------------------------------------|
A|---------------------------------------------------------------------------|
E|---------------------------------------------------------------------------|

Repeat Main Riff indefinitely

************************************

| /   slide up
| \   slide down
| h   hammer-on
| p   pull-off
| ~   vibrato
| +   harmonic
| x   Mute note
| b   Bend
| pb  Pre-bend
| br  Bend release
| pbr Pre-bend release
| brb Bend release bend

************************************
Добавлено: 13.04.2016
Другие материалы по этой песне:
  • Аккорды и текст

Страница создана 13.04.2016
http://primanota.ru/misc-computer-games/pokemon-battle-rival-o-r-a-s-chords.htm
Привет, Гость.
Предлагаем пройти революционный курс по гитаре.
Подарок от PrimaNota.Ru, забирай!