PrimaNota.ru - самый крупный в мире бесплатный архив песенных текстов, аккордов, табулатур и нот


Misc Computer Games - Divinity Original Sin - Bittersweet Regrets - таба, видео

Регистрация Запомнить меня
Войти через:  Facebook Google Twitter Vk Yandex Mail.ru

Misc Computer Games - Divinity Original Sin - Bittersweet Regrets - таба, видео

Печатать
Просмотров: 301
-------------------------------------------------------------------------------
                             Divinity: Original Sin - Bittersweet Regrets
-------------------------------------------------------------------------------
Tabbed by: yuyamarino
E-mail: azshift@outlook.com

Tuning: Standard

Capo on 6th Fret

Repeat as many times as you wish:

e|--3-------2--0------0----------2--2p0-----3-------2--0------0--7--8--7--5--3--2--|
B|-----0----------0---------------------3------0----------0------------------------|
G|-------0----------0----------------------------0----------0----------------------|
D|--2--------------------------0-0----------2--------------------5-----------------|
A|-------------3-----------0h2-------------------------3------------------5--------|
E|-----------------------3---------------------------------------------------------|

You can end the song with:

      Em
e|-----0-----|
B|-----0-----|
G|-----0-----|
D|-----2-----|
A|-----2-----|
E|-----0-----|

If you can improve the tab, please do! This is my first tab so it may not be 100% accurate :(


*****************
| h   hammer-on
| p   pull-off
*****************
Добавлено: 23.05.2015
Другие материалы по этой песне:
  • Аккорды и текст

Страница создана 23.05.2015
http://primanota.ru/misc-computer-games/divinity-original-sin-bittersweet-regrets-chords.htm
Привет, Гость.
Предлагаем пройти революционный курс по гитаре.
Подарок от PrimaNota.Ru, забирай!