PrimaNota.ru - самый крупный в мире бесплатный архив песенных текстов, аккордов, табулатур и нот


Misc Computer Games - Kirby Super Star - Green Greens - бас-таба, видео

Регистрация Запомнить меня
Войти через:  Facebook Google Twitter Vk Yandex Mail.ru

Misc Computer Games - Kirby Super Star - Green Greens - бас-таба, видео

Печатать
Просмотров: 116
Kirby Super Star - Green Greens

Tabbed by: XxThreeCheersxX
E-mail: burdickash@gmail.com

Tuning: Drop D

Part I
G|---------------------5---------5--------7------------12-12-12-12----|
D|-5--5-5-5--5--5--5-7------------------------------------------------|
A|--------------------------------------------------------------------|
D|--------------------------------------------------------------------|

Part II
G|------------------------------------------------|
D|------------------------------------------------|
A|-3-----3-----3-----3-----5-----3-----3-----3----|
D|----5-----5-----5-----5-----7-----5-----5-----5-|

G|---------------------------------------------------------------------------------------|
D|----------------------------------------7--5-------------------------------------------|
A|-3-----3-----3-----3-----5-----7-------------------------------3-----3-----3-----3-----|
D|----5-----5-----5-----5-----7-----2--7--------5--3-3----5-5-------5-----5-----5-----5--|

Part III
G|-------------------------|
D|-------------------------|
A|----3--1--------1-----6--| x 3
D|-3--------3--1-----6-----|

G|------------------------------|
D|---------------------5--------|
A|----3--1---------5-5----------|
D|-3--------3--3-3--------------|

Repeat back to parts 2 and 3 as much as you want!

| /  slide up
| \  slide down
| h  hammer-on
| p  pull-off
| ~  vibrato
| +  harmonic
| x  Mute note
===============================================================================
Добавлено: 15.06.2015
Другие материалы по этой песне:
  • Аккорды и текст

Страница создана 15.06.2015
http://primanota.ru/misc-computer-games/kirby-super-star-green-greens-chords.htm
Привет, Гость.
Предлагаем пройти революционный курс по гитаре.
Подарок от PrimaNota.Ru, забирай!