PrimaNota.ru - самый крупный в мире бесплатный архив песенных текстов, аккордов, табулатур и нот


Misc Computer Games - Jackal - Stage 2 - таба, бас-таба, видео

Регистрация Запомнить меня
Войти через:  Facebook Google Twitter Vk Yandex Mail.ru

Misc Computer Games - Jackal - Stage 2 - таба, бас-таба, видео

Печатать
Просмотров: 106
Gtr I (B E A D G B E) 
Gtr II (B E A D G B E) 

  Q=135
  Gtr I
  E S S E S S E S S E +S  S   +E  S S E S S E S S E S S
|---------------------------|---------------------------|
|---------------------------|---------------------------|
|---------------------------|---------------------------|
|---------------------------|---------------------------|
|-3-----------------3-(3)-1-|-(1)-----------------------|
|---------------------------|---------------------------|
|-4-1-1-1-1-1-1-1-1-4-(4)-3-|-(3)-1-1-1-1-1-1-1-1-1-1-1-|


  E S S E S S E S S E +S  S   +E  S S E S S E S S S E +S
|---------------------------|--------------------------------|
|---------------------------|--------------------------------|
|---------------------------|--------------------------------|
|---------------------------|--------------------------------|
|-3-----------------3-(3)-1-|-(1)----------------------------|
|---------------------------|---------------------6-7-(7)----|
|-4-1-1-1-1-1-1-1-1-4-(4)-3-|-(3)-1-1-1-1-1-1-1-1------------|


  W          W          W          W
|----------|----------|----------|------|
|----------|----------|----------|------|
|-5--------|-3--------|----------|------|
|----------|----------|-5--------|-3----|
|-6--------|-5--------|-6--------|-5----|
|----------|----------|----------|------|
|----------|----------|----------|------|


  W          H    Q   Q     E S S E S S E S S E +S  S
|----------|--------------|---------------------------|
|----------|--------------|---------------------------|
|----------|--------------|---------------------------|
|----------|--------------|---------------------------|
|-6--------|-8----5---6---|-3-----------------3-(3)-1-|
|-4--------|-6------------|---------------------------|
|----------|------6--(6)--|-4-1-1-1-1-1-1-1-1-4-(4)-3-|


  +E  S S E S S E S S S E +S
|------------------------------|
|------------------------------|
|------------------------------|
|------------------------------|
|-(1)--------------------------|
|---------------------6-7-(7)--|
|-(3)-1-1-1-1-1-1-1-1----------|


  W          W          W          W
|----------|----------|----------|------|
|----------|----------|----------|------|
|-5--------|-3--------|----------|------|
|----------|----------|-5--------|-3----|
|-6--------|-5--------|-6--------|-5----|
|----------|----------|----------|------|
|----------|----------|----------|------|


  W          H    Q   Q     E S S E S S E S S E +S  S
|----------|--------------|---------------------------|
|----------|--------------|---------------------------|
|----------|--------------|---------------------------|
|----------|--------------|---------------------------|
|-6--------|-8----5---6---|-3-----------------3-(3)-1-|
|-4--------|-6------------|---------------------------|
|----------|------6--(6)--|-4-1-1-1-1-1-1-1-1-4-(4)-3-|


  +E  S S E S S E S S S E +S
|------------------------------|
|------------------------------|
|------------------------------|
|------------------------------|
|-(1)--------------------------|
|---------------------6-7-(7)--|
|-(3)-1-1-1-1-1-1-1-1----------|


  E +S  H    +S  S S S S   E +S  H    +Q   +S
|------------------------|---------------------|
|------------------------|---------------------|
|------------------------|---------------------|
|------------------------|---------------------|
|-6-(6)-8----(8)-5-5-5-6-|-5-(5)---------------|
|------------------------|-------8----(8)--(8)-|
|------------------------|---------------------|
|
| Gtr II
| E +S  H    +S  Q         W
|------------------------|---------------------|
|------------------------|---------------------|
|------------------------|---------------------|
|------------------------|---------------------|
|------------------------|---------------------|
|-6-(6)-5----(5)-5-------|---------------------|
|------------------------|-8-------------------|


                   |-3-|
  E +S   H     +S  E E E   E +S   H     +Q    +S
|------------------------|--------------------------|
|------------------------|--------------------------|
|-8-(8)-10----(10)-7-7-8-|-7-(7)--------------------|
|------------------------|-------10----(10)--(10)---|
|------------------------|--------------------------|
|------------------------|--------------------------|
|------------------------|--------------------------|
|
|                  |-3-|
| E +S   H     +S  E E E   E +S   H     +Q    +S
|------------------------|--------------------------|
|------------------------|--------------------------|
|------------------------|--------------------------|
|-8-(8)--7-----(7)-7-7-8-|-7-(7)--------------------|
|------------------------|-------10----(10)--(10)---|
|------------------------|--------------------------|
|------------------------|--------------------------|


                                                                  |-3-|
  E +S  H    +S  S S S S   E +S  H    +Q   +S    E +S   H     +S  E E E
|------------------------|---------------------|------------------------|
|------------------------|---------------------|------------------------|
|------------------------|---------------------|-8-(8)-10----(10)-7-7-8-|
|------------------------|---------------------|------------------------|
|-6-(6)-8----(8)-5-5-5-6-|-5-(5)---------------|------------------------|
|------------------------|-------8----(8)--(8)-|------------------------|
|------------------------|---------------------|------------------------|
|
|                                                                 |-3-|
| E +S  H    +S  Q         W                     E +S   H     +S  E E E
|------------------------|---------------------|------------------------|
|------------------------|---------------------|------------------------|
|------------------------|---------------------|------------------------|
|------------------------|---------------------|-8-(8)--7-----(7)-7-7-8-|
|------------------------|---------------------|------------------------|
|-6-(6)-5----(5)-5-------|---------------------|------------------------|
|------------------------|-8-------------------|------------------------|


  E +S   Q   +E   +S  T T  T  T T T T  T T T T T
|---------------------------------------------------|
|---------------------------------------------------|
|-7-(7)---------------------------------------------|
|-------10--(10)-(10)--------------------6-7-8-9----|
|-------------------------------7-8-9-10------------|
|---------------------8-9-10-11---------------------|
|---------------------------------------------------|
|
| E +S   Q   +E   +S  T T  T  T T T T  T T T T T
|---------------------------------------------------|
|---------------------------------------------------|
|---------------------------------------------------|
|-7-(7)---------------------------------------------|
|-------10--(10)-(10)--------------------6-7-8-9----|
|-------------------------------7-8-9-10------------|
|---------------------8-9-10-11---------------------|


 3/4
  E S E S E E E   E S E S E E E   E S E S E E E   E S E S E E E
|---------------|---------------|---------------|---------------|
|---------------|---------------|---------------|---------------|
|-5-5-5-5-5-3-3-|-2-2-2-2-2-----|---------------|---------------|
|-5-5-5-5-5-3-3-|-----------5-3-|-3-3-3-3-3-5-5-|-3-3-3-3-3-2-2-|
|---------------|-3-3-3-3-3-3-3-|-3-3-3-3-3-5-5-|-3-3-3-3-3-3-3-|
|---------------|---------------|---------------|---------------|
|---------------|---------------|---------------|---------------|


  E S E S E E E   E S E S E E E   E S E S E E E   E S E S E E E
|---------------|---------------|---------------|------------------|
|---------------|---------------|---------------|------------------|
|-5-5-5-5-5-3-3-|-2-2-2-2-2-----|---------------|------------------|
|-5-5-5-5-5-3-3-|-----------5-3-|-3-3-3-3-3-5-5-|-3-3-3-3-3-2-2----|
|---------------|-3-3-3-3-3-3-3-|-3-3-3-3-3-5-5-|-3-3-3-3-3-3-3----|
|---------------|---------------|---------------|------------------|
|---------------|---------------|---------------|------------------|


  S S S Q  +E  S S  S S  S  S S    S  S  S  Q   +E   S  S  S S  S  S S
|-----------------------11-13---|------------------------------18-17---|
|-------------------------------|--------------------------------------|
|--------------8-8-10-----------|-------------------15-14-13-----------|
|-------------------------------|--------------------------------------|
|-6-6-6-8--(8)------------------|-13-12-11-10--(10)--------------------|
|-------------------------------|--------------------------------------|
|-------------------------------|--------------------------------------|
|
| S S S Q  +E  S S  S S  S  S S    S  S  S  Q   +E   S  S  S S  S  S S
|-------------------------------|------------------------------13-12---|
|-----------------------11-13---|--------------------------------------|
|-------------------------------|-------------------10--9--8-----------|
|--------------8-8-10-----------|--------------------------------------|
|-------------------------------|--8--7--6--5---(5)--------------------|
|-6-6-6-5--(5)------------------|--------------------------------------|
|-------------------------------|--------------------------------------|


  S S S Q  +E  S S  S S  S  S S    S  S  S  Q   +E   S  S  S S  S  S S
|-----------------------11-13---|------------------------------18-17------|
|-------------------------------|-----------------------------------------|
|--------------8-8-10-----------|-------------------15-14-13--------------|
|-------------------------------|-----------------------------------------|
|-6-6-6-8--(8)------------------|-13-12-11-10--(10)-----------------------|
|-------------------------------|-----------------------------------------|
|-------------------------------|-----------------------------------------|
|
| S S S Q  +E  S S  S S  S  S S    S  S  S  Q   +E   S  S  S S  S  S S
|-------------------------------|------------------------------13-12------|
|-----------------------11-13---|-----------------------------------------|
|-------------------------------|-------------------10--9--8--------------|
|--------------8-8-10-----------|-----------------------------------------|
|-------------------------------|--8--7--6--5---(5)-----------------------|
|-6-6-6-5--(5)------------------|-----------------------------------------|
|-------------------------------|-----------------------------------------|


 3/4
  E   +S  S S S S S S S S S   E   +S  S S S S S S S S S
|-------------3-------------|-------------3-------------|
|-----------------6---4-----|-----------------6---4-----|
|-----------5---5---5-----5-|-----------5---5---5-----5-|
|---------3-------------3---|---------3-------------3---|
|-3---(3)-------------------|-3---(3)-------------------|
|---------------------------|---------------------------|
|---------------------------|---------------------------|
|
| S S  S  S S S S S S S S S   S S  S  S S S S S S S S S
|---------3-----------------|---------3-----------------|
|-------------6---4---------|-------------6---4---------|
|------5----5---5-----5-----|------5----5---5-----5-----|
|---3---------------3-------|---3---------------3-------|
|-3---------------------3-6-|-3---------------------3-6-|
|---------------------------|---------------------------|
|---------------------------|---------------------------|


  E   +S  S S S S S S S S S   E   +S  S S S S S S S S S
|-------------3-------------|-------------3---------------|
|-----------------6---4-----|-----------------6---4-------|
|-----------5---5---5-----5-|-----------5---5---5-----5---|
|---------3-------------3---|---------3-------------3-----|
|-3---(3)-------------------|-3---(3)---------------------|
|---------------------------|-----------------------------|
|---------------------------|-----------------------------|
|
| S S  S  S S S S S S S S S   S S  S  S S S S S S S S S
|---------3-----------------|---------3-------------------|
|-------------6---4---------|-------------6---4-----------|
|------5----5---5-----5-----|------5----5---5-----5-------|
|---3---------------3-------|---3---------------3---------|
|-3---------------------3-6-|-3---------------------3-6---|
|---------------------------|-----------------------------|
|---------------------------|-----------------------------|


  E   +S  S S S S S S S S S   E   +S  S S S S S S S S S
|-------------3-------------|-------------3-------------|
|-----------------6---4-----|-----------------6---4-----|
|-----------5---5---5-----5-|-----------5---5---5-----5-|
|---------3-------------3---|---------3-------------3---|
|-3---(3)-------------------|-3---(3)-------------------|
|---------------------------|---------------------------|
|---------------------------|---------------------------|
|
| S S  S  S S S S S S S S S   S S  S  S S S S S S S S S
|---------3-----------------|---------3-----------------|
|-------------6---4---------|-------------6---4---------|
|------5----5---5-----5-----|------5----5---5-----5-----|
|---3---------------3-------|---3---------------3-------|
|-3---------------------3-6-|-3---------------------3-6-|
|---------------------------|---------------------------|
|---------------------------|---------------------------|


  E   +S  S S S S S S S S S   E   +S  S S S S S S S S S
|-------------3-------------|-------------3----------------|
|-----------------6---4-----|-----------------6---4--------|
|-----------5---5---5-----5-|-----------5---5---5-----5----|
|---------3-------------3---|---------3-------------3------|
|-3---(3)-------------------|-3---(3)----------------------|
|---------------------------|------------------------------|
|---------------------------|------------------------------|
|
| S S  S  S S S S S S S S S   S S  S  S S S S S S S S S
|---------3-----------------|---------3--------------------|
|-------------6---4---------|-------------6---4------------|
|------5----5---5-----5-----|------5----5---5-----5--------|
|---3---------------3-------|---3---------------3----------|
|-3---------------------3-6-|-3---------------------3-6----|
|---------------------------|------------------------------|
|---------------------------|------------------------------|


  |-3-|                      |-3-|
  E E E  Q   +E  E S E +S    E E E  Q   +E  E S E +S
|--------------------------|--------------------------|
|--------------------------|--------------------------|
|-8-7-8-10--(10)-8-8-7-(7)-|-8-7-8--------------------|
|--------------------------|-------10--(10)-----------|
|--------------------------|----------------6-6-8-(8)-|
|--------------------------|--------------------------|
|--------------------------|--------------------------|
|
| |-3-|                      |-3-|
| E E E  Q   +E  E S E +S    E E E  Q   +E  E S E +S
|--------------------------|--------------------------|
|--------------------------|--------------------------|
|--------------------------|--------------------------|
|-8-7-8-10--(10)-8-8-7-(7)-|-8-7-8--------------------|
|--------------------------|-------10--(10)-----------|
|--------------------------|----------------6-6-8-(8)-|
|--------------------------|--------------------------|


  |-3-|            |-3--|   |-3-|
  E E E  Q   +E  E E  E E   E E E  Q   +E  E S E +S
|-------------------------|---------------------------|
|------------------8------|---------------------------|
|-8-7-8-10--(10)-8---10-8-|-8-7-8---------------------|
|-------------------------|-------10--(10)-8-8-7-(7)--|
|-------------------------|---------------------------|
|-------------------------|---------------------------|
|-------------------------|---------------------------|
|
| |-3-|            |-3--|   |-3-|
| E E E  Q   +E  E E  E E   E E E  Q   +E  E S E +S
|-------------------------|---------------------------|
|-------------------------|---------------------------|
|------------------7------|---------------------------|
|-8-7-8-10--(10)-8---10-8-|-8-7-8---------------------|
|-------------------------|-------10--(10)-8-8-7-(7)--|
|-------------------------|---------------------------|
|-------------------------|---------------------------|


  E +S  E +S  E S S S S   E +S  E +S  E S S S S
|-----------------------|-----------------------|
|-----------------------|-----------------------|
|-----------------------|-----------------------|
|-5-(5)-5-(5)-5-5-5-5-5-|-6-(6)-6-(6)-6-6-6-6-6-|
|-6-(6)-6-(6)-6-6-6-6-6-|-8-(8)-8-(8)-8-8-8-8-8-|
|-----------------------|-----------------------|
|-----------------------|-----------------------|


  E +S  E +S  E S S S S   E +S  H    +S
|-----------------------|----------------|
|-----------------------|----------------|
|-----------------------|----------------|
|-3-(3)-3-(3)-3-3-3-3-3-|-3-(3)----------|
|-5-(5)-5-(5)-5-5-5-5-5-|-5-(5)-7----(7)-|
|-----------------------|----------------|
|-----------------------|-------8----(8)-|


  E +S  E +S  E S S S S   E +S  E +S  E S S S S
|-----------------------|-----------------------|
|-----------------------|-----------------------|
|-----------------------|-----------------------|
|-5-(5)-5-(5)-5-5-5-5-5-|-6-(6)-6-(6)-6-6-6-6-6-|
|-6-(6)-6-(6)-6-6-6-6-6-|-8-(8)-8-(8)-8-8-8-8-8-|
|-----------------------|-----------------------|
|-----------------------|-----------------------|


  E +S  E +S  E S S S S    S  S  S  S  S  S  S  S  Q
|-----------------------|------------------------------|
|-----------------------|------------------------------|
|-----------------------|------------------------------|
|-8-(8)-8-(8)-8-8-8-8-8-|-10-10-10-10-10-10-10-10-10---|
|-5-(5)-5-(5)-5-5-5-5-5-|--8--8--8--8--8--8--8--8--7---|
|-----------------------|------------------------------|
|-----------------------|------------------------------|


Добавлено: 16.06.2015
Другие материалы по этой песне:

Страница создана 15.06.2015
http://primanota.ru/misc-computer-games/jackal-stage-2-chords.htm
Привет, Гость.
Предлагаем пройти революционный курс по гитаре.
Подарок от PrimaNota.Ru, забирай!