PrimaNota.ru - самый крупный в мире бесплатный архив песенных текстов, аккордов, табулатур и нот


Misc Computer Games - Halo Reach Theme - таба, видео

Регистрация Запомнить меня
Войти через:  Facebook Google Twitter Vk Yandex Mail.ru

Misc Computer Games - Halo Reach Theme - таба, видео

Печатать
Просмотров: 51
-------------------------------------------------------------------------------
                             Halo Reach - Theme Solo
-------------------------------------------------------------------------------
Tabbed by:meme369

Tuning:EADGBE

e|----------------------------------------------------------------------------|
B|----------------------------------------------------------------------------|
G|------------------------------------4--6--7--6-----6--4~---------------0--2-|
D|------------------------------------------------7----------------0--2-------|
A|---7--9--10--9--12--10--9--7~---------------------------------2-------------|
E|----------------------------------------------------------------------------|

e|----------------------------------------------------------------------------|
B|----------------------------------------------------------------------------|
G|--------------0-------------------------------------------------------------|
D|---4~------2-----4--2--4----------9~----------------------------------------|
A|--------------------------5~--7~--------------7~---------9~---------10~-----|
E|----------------------------------------0-0-0-0----0-0-0-0----0-0-0-0-------|

e|---------------|
B|---------------|
G|---------------|
D|---------------|*repeat as many times as you want*
A|----12-12-10-9-|
E|----0--0--0--0-|

************************************
| ~   vibrato
| b   Bend
************************************
 I am new so there may be quite
 a few mistakes
 please comment if so
        
      thanks:)
Добавлено: 13.04.2016
Другие материалы по этой песне:
  • Аккорды и текст

Страница создана 13.04.2016
http://primanota.ru/misc-computer-games/halo-reach-theme-chords.htm
Привет, Гость.
Предлагаем пройти революционный курс по гитаре.
Подарок от PrimaNota.Ru, забирай!