PrimaNota.ru - самый крупный в мире бесплатный архив песенных текстов, аккордов, табулатур и нот


Misc Computer Games - Luigis Mansion - Ghost Theme - бас-таба, видео

Регистрация Запомнить меня
Войти через:  Facebook Google Twitter Vk Yandex Mail.ru

Misc Computer Games - Luigis Mansion - Ghost Theme - бас-таба, видео

Печатать
Просмотров: 144
Luigi's Mansion - Ghost Theme

Tabbed by: XxThreeCheersxX
E-mail: phantomhiveghost@gmail.com

Tuning: Standard

G|-2-----0------------------------------------|
D|-----2---4-3-----2-----1-----0--------------|
A|---------------3-----0-----2-----2-3--0-----|
E|-----------------------------------------0--|

G|-----------------------------|
D|-2-1---2-3---2-0-------------|
A|-----------------3-2-0-2-----|
E|---------------------------0-|

Happy playing!
If you have any suggestions/corrections, email me or comment.
Добавлено: 31.08.2013
Другие материалы по этой песне:
  • Аккорды и текст

Страница создана 31.08.2013
http://primanota.ru/misc-computer-games/luigis-mansion-ghost-theme-chords.htm
Привет, Гость.
Предлагаем пройти революционный курс по гитаре.
Подарок от PrimaNota.Ru, забирай!