PrimaNota.ru - самый крупный в мире бесплатный архив песенных текстов, аккордов, табулатур и нот


Misc Computer Games - Earthbound - Home Sweet Home - бас-таба, видео

Регистрация Запомнить меня
Войти через:  Facebook Google Twitter Vk Yandex Mail.ru

Misc Computer Games - Earthbound - Home Sweet Home - бас-таба, видео

Печатать
Просмотров: 113
Earthbound - Home Sweet Home

Tabbed by: Ashy (XxThreeCheersxX)
E-mail: burdickash@gmail.com

Tuning: Standard

Part I
G|---------5~------7----------5~----------------5~------7----------5~------4-2-|
D|------5------------------5-----------------5------------------5--------------|
A|-3------------------3-----------------3------------------3-------------------|
E|-----------------------------------------------------------------------------|

Part II
G|-0~----0-----------------------------------------------------|
D|---------4~----4-2~----2-0~----0--------------------------4--|
A|---------------------------------3~----3-2~----2-0~----0-----| x 2
E|-------------------------------------------------------------|

G|-------------------------------------(0)~--------|
D|-5~----4~----2~----0~----------0~----------------|
A|-------------------------3~----------------------|
E|-------------------------------------------------|

Part III
G|--------------5----------------7--|
D|-----------5---------------5------|
A|------3---------------3-----------| x 2
E|-3---------------3----------------|

Repeat back to Part II

Happy playing!

| /  slide up
| \  slide down
| h  hammer-on
| p  pull-off
| ~  vibrato
| +  harmonic
| x  Mute note
===============================================================================
Добавлено: 28.08.2015
Другие материалы по этой песне:
  • Аккорды и текст

Страница создана 28.08.2015
http://primanota.ru/misc-computer-games/earthbound-home-sweet-home-chords.htm
Привет, Гость.
Предлагаем пройти революционный курс по гитаре.
Подарок от PrimaNota.Ru, забирай!