PrimaNota.ru - самый крупный в мире бесплатный архив песенных текстов, аккордов, табулатур и нот


Misc Computer Games - Earthbound - Hospital - бас-таба, видео

Регистрация Запомнить меня
Войти через:  Facebook Google Twitter Vk Yandex Mail.ru

Misc Computer Games - Earthbound - Hospital - бас-таба, видео

Печатать
Просмотров: 80
Earthbound - Hospital

Tabbed by: Ashy (XxThreeCheersxX)
E-mail: burdickash@gmail.com

Tuning: Standard

Part I (come in at 0:11)
G|--------------------------------------------------------------|
D|-5------------------------------5-----------------------------|
A|---5------------------------------5---5---------------7-7-7-7-|
E|-----3--3---------5--5-3-5-3--------3---3--------5--5---------|

G|-----------------------------------------------------------------|
D|-5------------------------------5--------------------------------|
A|---5------------------------------5---5--------------------------|
E|-----3--3---------5--5-3-5-3--------3---3--3-3-----5-5-5-0-0-0-0-|

Part II
G|--------------------------------------------------------------|
D|-5------------------------------5-----------------------------|
A|---5------------------------------5-------------------0-0-0-0-|
E|-----3--3---------5--5-3-5-3--------3--3--------1-1-1---------|

G|--------------------------------------------------------------|
D|-2------------------------------------------------------------|
A|---2---2----------------------5-5-3-5-5---------------5-5-5-5-|
E|-----0---0--------5--5-3-5-3--------------------5-5-5---------|

Part III
G|------------------------------------------------------------------------------------|
D|------------------------------------------------------------------------------------|
A|---------------5-5-3-5-------------7--7-7-7-------------------------5-5-5-3-5-5-5-5-|
E|-5--5-3-----------------------7--------------------5-5-5-3-5-5-5-5------------------|

G|------------------------------|
D|------------------------------|
A|------------------------------|
E|-3--3--3--------5-5-5-0-0-0-0-|

Part IV x 6
G|----------------------------------|
D|----------------------------------|
A|---------------------------7-7----|
E|-3--3-0-3--------5-5-5-5-5-----5--|

Repeat back to Part II

Happy playing!

| /  slide up
| \  slide down
| h  hammer-on
| p  pull-off
| ~  vibrato
| +  harmonic
| x  Mute note
===============================================================================
Добавлено: 21.08.2015
Другие материалы по этой песне:
  • Аккорды и текст

Страница создана 21.08.2015
http://primanota.ru/misc-computer-games/earthbound-hospital-chords.htm
Привет, Гость.
Предлагаем пройти революционный курс по гитаре.
Подарок от PrimaNota.Ru, забирай!