PrimaNota.ru - самый крупный в мире бесплатный архив песенных текстов, аккордов, табулатур и нот


Misc Computer Games - Franky - бас-таба, видео

Регистрация Запомнить меня
Войти через:  Facebook Google Twitter Vk Yandex Mail.ru

Misc Computer Games - Franky - бас-таба, видео

Печатать
Просмотров: 118
Уроки эстрадного вокала в Санкт-Петербурге
Earthbound - Franky

Tabbed by: Ashy (XxThreeCheersxX)
E-mail: burdickash@gmail.com

Tuning: Standard

This song is so fun, it's just a variation of a 12 bar blues!  Happy playing!

G|-------------------------------------------------------------------------|
D|-------------------------------------------------------------------------|
A|-------------------5x-------------------------------------7-7-7-7-7-7-7--|
E|-5x----------------------------------5--------5\\\-----------------------|

G|-------------4---------------4-----------------------------------|
D|-----4-4-7-7---7-----4-4-7-7---7-------------4---------------4---|
A|-5-5-------------5-5-----------------4-4-7-7---7-----4-4-7-7---7-|
E|---------------------------------5-5-------------5-5-------------|

G|-------------6---------------4----------------------------------|
D|-----6-6-9-9---9-----4-4-7-7---7--------------------------------|
A|-7-7-------------5-5-----------------4-4-5-5-6-6--7-7-7-7-7-7-7-|
E|---------------------------------5-5----------------------------|

G|-----------------------------------------------------------------|
D|-------------4-4-7-7-4-4---------------------4-4-7-7-4-4---------|
A|-----4-4-7-7-------------7-7-4-4-----4-4-7-7-------------7-7-4-4-|
E|-5-5-----------------------------5-5-----------------------------|

G|-----------------------------------------------------------------|
D|---------------------------------------------4-4-5-5-4-4---------|
A|-5-5-----------------2-2-4-4-5-5-----4-4-7-7-------------7-7-4-4-|
E|-----2-2-3-3-4-4-5-5-------------5-5-----------------------------|

G|-------------4-5-------------------------------------------------|
D|-----6-6-7-7---------4-4-5-5-6-7-7-7-5-5-4-4---------------------|
A|-7-7-------------5-5-------------------------8-8--7-7-7-7--------|
E|-----------------------------------------------------------------|

| /  slide up
| \  slide down
| h  hammer-on
| p  pull-off
| ~  vibrato
| +  harmonic
| x  Mute note
===============================================================================
Добавлено: 21.08.2015
Другие материалы по этой песне:
  • Аккорды и текст

Страница создана 21.08.2015
http://primanota.ru/misc-computer-games/franky-chords.htm
Привет, Гость.
Предлагаем пройти революционный курс по гитаре.
Подарок от PrimaNota.Ru, забирай!