PrimaNota.ru - самый крупный в мире бесплатный архив песенных текстов, аккордов, табулатур и нот


Misc Computer Games - Dragon Valor - Raxis Castle Theme - таба

Регистрация Запомнить меня
Войти через:  Facebook Google Twitter Vk Yandex Mail.ru

Misc Computer Games - Dragon Valor - Raxis Castle Theme - таба

Печатать
Просмотров: 57
Dragon Valor - Raxis Castle Theme

-----------------------------------------------------------------------

I got the song just by listening him, so, if is something wrong, 
mail me (giovanni7games@hotmail.com) or post a comment please

-----------------------------------------------------------------------

E/----------------------------------------------------------------------|
A|----------------------------------------------------------------------|
D|---------------------------------------------------11-----------------|
G|-------------9--------------------6------------------12-13~-12-10-12~-|
B|---------------10-12--10-9-12-10----9-10--9-7-10-9--------------------|
e\-10--9-7-9-7----------------------------------------------------------|

E/----------------------------------------------------------------|
A|----------------------------------------------------------------|
D|---------------------------------------------------11-----------|
G|-------------9--------------------6------------------12-13--12~-|
B|---------------10-12--10-9-12-10----9-10--9-7-10-9--------------|
e\-10--9-7-9-7----------------------------------------------------|

After this part, the song turn to a lower keyboard, and after repeat that tab again...

-----------------------------------------------------------------------
                            
~ is a symbol for vibration

-----------------------------------------------------------------------
IF YOU LISTEN THE SONG, IT'S EASIER TO LEARN!!!

The game is old but gold, it's awesome!!!
Enjoy
Добавлено: 10.09.2015
Другие материалы по этой песне:
  • Аккорды и текст

Страница создана 10.09.2015
http://primanota.ru/misc-computer-games/dragon-valor-raxis-castle-theme-chords.htm
Привет, Гость.
Предлагаем пройти революционный курс по гитаре.
Подарок от PrimaNota.Ru, забирай!