PrimaNota.ru - самый крупный в мире бесплатный архив песенных текстов, аккордов, табулатур и нот


Misc Computer Games - Hellnight - Welcome To The Tokyo Mesh - таба

Регистрация Запомнить меня
Войти через:  Facebook Google Twitter Vk Yandex Mail.ru

Misc Computer Games - Hellnight - Welcome To The Tokyo Mesh - таба

Печатать
Просмотров: 66
-------------------------------------------------------------------------------
                             Welcome to the Tokyo Mesh - Hellnight
-------------------------------------------------------------------------------
Tabbed by: spiritmint

Tuning: Standard (Though, if you want the full Sitar effect, tune down very slightly)

Opening:

e|-----------------------------------|
B|---1/3--4--3---4--3-4-3-4-3-4------|
G|-----------------------------------|
D|-----------------------------------|
A|-----------------------------------|
E|-----------------------------------|

Main Riff:
                                                                               x2
e|---------------------------4--4/5----------------------------------4/1--------|
B|---1/3--4--4/6--6/4-4--3-----------4--3----4--4/6---4---3---2---3-------4-3---|
G|------------------------------------------------------------------------------|
D|------------------------------------------------------------------------------|
A|------------------------------------------------------------------------------|
E|------------------------------------------------------------------------------|

e|---4--5---6---8---8-6-5--4---5---1-------1---4---1--4--7----------------------|
B|-------------------------------------4----------------------------------------|
G|------------------------------------------------------------------------------|
D|------------------------------------------------------------------------------|
A|------------------------------------------------------------------------------|
E|------------------------------------------------------------------------------|

e|---4--5---6---8---8-6-5--4---5---1------1-----1--4--1--4--7--7----------------|
B|-------------------------------------4-----4----------------------------------|
G|------------------------------------------------------------------------------|
D|------------------------------------------------------------------------------|
A|------------------------------------------------------------------------------|
E|------------------------------------------------------------------------------|

Outro:

e|--------------------------------------|
B|---1/3--4--3---4--3-4-3-4-3-4---1/3---|
G|--------------------------------------|
D|--------------------------------------|
A|--------------------------------------|
E|--------------------------------------|

Listen to it here for timing: 
[https://www.youtube.com/watch?v=qascPfMl5I0&index=5&list=PL6B683DDAEC78D7F0]
Добавлено: 14.09.2015
Другие материалы по этой песне:
  • Аккорды и текст

Страница создана 14.09.2015
http://primanota.ru/misc-computer-games/hellnight-welcome-to-tokyo-mesh-chords.htm
Привет, Гость.
Предлагаем пройти революционный курс по гитаре.
Подарок от PrimaNota.Ru, забирай!