PrimaNota.ru - самый крупный в мире бесплатный архив песенных текстов, аккордов, табулатур и нот


Misc Computer Games - Fighting To The End Bravely Default Boss Theme - таба, видео

Регистрация Запомнить меня
Войти через:  Facebook Google Twitter Vk Yandex Mail.ru

Misc Computer Games - Fighting To The End Bravely Default Boss Theme - таба, видео

Печатать
Просмотров: 78
If you find any errors, feel free to email icantbeatairman@gmail.com


Song: Fighting to the End (Boss Battle Theme)
Album: Bravely Default OST
Composed by : Revo


Standard tuning


=== Intro ===
e|----------------------------------------------|
B|----------------------------------------------|
G|--8-8-8--5-5-5--------------------------------|
D|--6-6-6--3-3-3--7-7-7--4-4-4------------------|
A|----------------5-5-5--2-2-2--6-6--3-3--------|
E|------------------------------4-4--1-1--------|


=== Main Riff ===
e|----------------------------------------------|
B|----------------------------------------------|
G|----------------------------------------------|
D|----------------------------------------------| x2
A|------2---3-2-0----------2-0-3-2--------------|
E|--0-0---0-------3----0-0---------3-2----------|

e|----------------------------------------------|
B|----------------------------------------------|
G|----------------------------------------------|
D|----------------------------------------------|
A|------7---8-7-5----------7---8-7--------------|
E|--5-5---5-------8----5-5---5-----8-7----------|

e|----------------------------------------------|
B|----------------------------------------------|
G|----------------------------------------------|
D|----------------------------------------------|
A|------7---8-7-5------5-3-2--------------------|
E|--5-5---5-------8----------3---5-1-0----------|


=== Transition ===
e|----------------------------------------------|
B|--10-9----8-7----7-6----6-5-------------------|
G|-------8------5------4------3-----------------|
D|------------------------------3-5-6-7---------|
A|----------------------------------------------|
E|----------------------------------------------|


=== Octave Powerchord Riff ===
e|----------------------------------------------|
B|--------17--17--17--16--16--16--16--11-11-11--|
G|----------------------------------------------|
D|--7--7--14--14--14--13--13--13--13--8--8--8---| x2
A|----------------------------------------------|
E|----------------------------------------------|


=== Octave Powerchord Riff (Second Guitar) ===
e|----------------------------------------------|
B|--------11--11--11--10--10--10----------------|
G|--8--8--------------------------9--9--9--9----|
D|----------------------------------------------| x2
A|----------------------------------------------|
E|----------------------------------------------|


=== Chorus ===
e|----------------------------------------------|
B|----------------------------------------------|
G|----------------------------------------------|
D|----------------8-------5---7-----------------| x2
A|---10---8---6---6---3---3---5---7-------------|
E|---8----6---4-------1-----------5-------------|


=== Lead ===
e|----------------------------------------------|
B|--13-15-16-15-13--------------13--------------|
G|-----------------12-15--12-15----15-13-10-12--|
D|----------------------------------------------|
A|----------------------------------------------|
E|----------------------------------------------|

e|----------------------------------------------|
B|----------------------------------------------|
G|--10-12-13-12-10-----------10-12---10---------|
D|-----------------10-13--13------------12------|
A|----------------------------------------------|
E|----------------------------------------------|

e|----------------------------------------------|
B|--13-15-16-15-13--------------13--------------|
G|-----------------12-15--12-15----15-13-10-12--|
D|----------------------------------------------|
A|----------------------------------------------|
E|----------------------------------------------|

e|----------------------------------------------|
B|-----------------------------------13-12------|
G|--10-12-13-12-10-----------10-12--------------|
D|-----------------10-13--13--------------------|
A|----------------------------------------------|
E|----------------------------------------------|


=== Solo 1 ===
e|--18-15-18-15-18^15----18---------------------|
B|--------------------18^---18^16-15---17^17^18-|
G|-----------------------------------15---------|
D|----------------------------------------------|
A|----------------------------------------------|
E|----------------------------------------------|
    T           T           T           T
e|--18-10-8-10--16-10-8-10--15-10-8-10--13-10-8-10-|
B|-------------------------------------------------|
G|-------------------------------------------------|
D|-------------------------------------------------|
A|-------------------------------------------------|
E|-------------------------------------------------|

e|---------4/16--15-13-11-10-11-18-16-15-16-15-13-11-10--|
B|--11/13------------------------------------------------|
G|-------------------------------------------------------|
D|-------------------------------------------------------|
A|-------------------------------------------------------|
E|-------------------------------------------------------|


=== Harmony ===
e|--------------------------------------------------|
B|-----------------13----------------13-9-----------|
G|--------12----------12----13-10---------10-12-10--|
D|--10-13----13-10-------13-------12----------------|
A|--------------------------------------------------|
E|--------------------------------------------------|

e|----------------------------------------------------------------|
B|---------------13-----------------------------------------------|
G|-----9-12-9-------12----13-12----------------------------10-13--|
D|--12--------12-------12-------13-10-------12-13-------13--------|
A|------------------------------------13-11-------11-11-----------|
E|----------------------------------------------------------------|


=== Solo 2 ===
e|--8-----8-----7-----7-------7-8---------------|
B|----8-----8-----8-----8---8-----10------------|
G|------8-----8-----7-----7---------------------|
D|----------------------------------------------|
A|----------------------------------------------|
E|----------------------------------------------|

e|--5-8-5-8---------------------------------------17^--|
B|----------5-8-5-8-------------------16-16-16-15------|
G|------------------5-7-5-7----------------------------|
D|--------------------------5-7-5-7~-------------------|
A|-----------------------------------------------------|
E|-----------------------------------------------------|
Добавлено: 10.09.2015
Другие материалы по этой песне:
  • Аккорды и текст

Страница создана 10.09.2015
http://primanota.ru/misc-computer-games/fighting-to-end-bravely-default-boss-theme-chords.htm
Привет, Гость.
Предлагаем пройти революционный курс по гитаре.
Подарок от PrimaNota.Ru, забирай!