PrimaNota.ru - самый крупный в мире бесплатный архив песенных текстов, аккордов, табулатур и нот


Misc Computer Games - Hotline Miami 2 - Around - Modulogeek - таба

Регистрация Запомнить меня
Войти через:  Facebook Google Twitter Vk Yandex Mail.ru

Misc Computer Games - Hotline Miami 2 - Around - Modulogeek - таба

Печатать
Просмотров: 358
-------------------------------------------------------------------------------
                             Around - Modulogeek
-------------------------------------------------------------------------------
Tabbed by: LotusRevolution

From the Hotline Miami 2: Wrong Number soundtrack. 

Tuning: Normal

         x8                 x4                  x3
e|---------------------------------------------------------------------------|
B|-------------0------------1-------------------------1----------------------|
G|-------5------------------------2------------------------------------------|
D|-----------------------------------------------3---------------------------|
A|--3------------------------------------------------------------------------|
E|----------------------1------------------3---------------------------------|

         x4                 x2                  x2
e|---------------------------------------------------------------------------|
B|-------------0------------1-------------------------1----------------------|
G|-------5------------------------2------------------------(0)---------------|
D|-----------------------------------------------3---------------------------|
A|--3------------------------------------------------------------------------|
E|----------------------1------------------3---------------------------------|

         x2
e|---------------------------------------------------0-----------0-----------|
B|-------------1---------3----------5-------1-------------1-----------1------|
G|--------------------------------------2--------------------------------2---|
D|--------2--------------2---------------------------------------------------|
A|--0------------------------------------------------------------------------|
E|-----------------------3----------1-------------1----------3---------------|


Enjoy!
Добавлено: 14.09.2015
Другие материалы по этой песне:
  • Аккорды и текст

Страница создана 14.09.2015
http://primanota.ru/misc-computer-games/hotline-miami-2-around-modulogeek-chords.htm
Привет, Гость.
Предлагаем пройти революционный курс по гитаре.
Подарок от PrimaNota.Ru, забирай!