PrimaNota.ru - самый крупный в мире бесплатный архив песенных текстов, аккордов, табулатур и нот


Misc Computer Games - Guns Of Icarus Online - Adventures - таба, видео

Регистрация Запомнить меня
Войти через:  Facebook Google Twitter Vk Yandex Mail.ru

Misc Computer Games - Guns Of Icarus Online - Adventures - таба, видео

Печатать
Просмотров: 68
-------------------------------------------------------------------------------
                             Adventures - Guns Of Icarus Online
-------------------------------------------------------------------------------
Tabbed by: Emil (me)
E-mail: emilio2011@rocketmail.com
Hey Guys,
this is one of my favourite computer games and i find the soundtrack amazing. If u find an mistake pls send me 
E-Mail :) 

Youtube: https://www.youtube.com/watch?v=Wi9YWfKj0r0
Have FUN


Tuning: EADGBE

e|---------------------------------------------------------------------------|
B|------0-1-----------------------------3-----1---------------------------0-1|
G|--2------------2-0---------------------------------0------2-0------2-------|
D|-------------------------3--2--0-------------------------------------------|
A|---------------------------------------------------------------------------|
E|---------------------------------------------------------------------------|

e|----------0------3-------5------3-0----------------------------------------|
B|--3-------------------------------------3-----1-----3----------------------|
G|---------------------------------------------------------------------------|
D|-----------------------------------------------------------0-------------2-|
A|------------------------------------------------------------------3--------|
E|---------------------------------------------------------------------------|

e|--------------------------------------------------------------------------0|
B|--------------------------1--------1-------------------3--------1----------|
G|-------------------0-2-----------------------------------------------------|
D|-0--------3----------------------------------------------------------------|
A|---------------------------------------------------------------------------|
E|---------------------------------------------------------------------------|

e|-------------1----------3------5--------8-----8----------------------------|
B|---3-----------------------------------------------------------------------|
G|----------------------------------------------------------2---------0------|
D|---------------------------------------------------------------------------|
A|---------------------------------------------------------------------------|
E|---------------------------------------------------------------------------|

e|---------------------------------------------------------------------------|
B|---------------------------------------------------------------------------|
G|---------------------------------------------------------------------------|
D|---3-2--0----------------------0-------------------------------------------|
A|-------------------3-------------------------------------------------------|
E|---------------------------------------------------------------------------|




************************************

| /   slide up
| \   slide down
| h   hammer-on
| p   pull-off
| ~   vibrato
| +   harmonic
| x   Mute note
| b   Bend
| pb  Pre-bend
| br  Bend release
| pbr Pre-bend release
| brb Bend release bend

************************************
Добавлено: 14.09.2015
Другие материалы по этой песне:
  • Аккорды и текст

Страница создана 14.09.2015
http://primanota.ru/misc-computer-games/guns-of-icarus-online-adventures-chords.htm
Привет, Гость.
Предлагаем пройти революционный курс по гитаре.
Подарок от PrimaNota.Ru, забирай!