PrimaNota.ru - самый крупный в мире бесплатный архив песенных текстов, аккордов, табулатур и нот


Misc Computer Games - Dragon Age Inquisition - The Dawn Will Come - таба, видео

Регистрация Запомнить меня
Войти через:  Facebook Google Twitter Vk Yandex Mail.ru

Misc Computer Games - Dragon Age Inquisition - The Dawn Will Come - таба, видео

Печатать
Просмотров: 417
-------------------------------------------------------------------------------
                       The Dawn Will Come - Trevor Morris
-------------------------------------------------------------------------------
Tuning: e B G D A E
Capo 5
                                                                (x2)
e|  -------------------------------------------------------------  |
B|  -------------------------------------------------------------  |
G|. ---------------------0---2----------------------------------- .|
D|. --------2--2----2-4-----------2---------2--2----------------- .|
A|  ---0--------------------------------0-----------0---3---2----  |
E|  ------------------------------------------------------------3  |

e|-------------------|
B|-------------------|
G|-------------------|
D|-------------------|
A|-------------------|
E|--3---0--5--5------|

                                                                (x2)
e|  -------------------------------------------------------------  |
B|  -------------------------------------------------------------  |
G|. ---------------------0---2----------------------------------- .|
D|. --------2--2----2-4-----------2---------2--2----------------- .|
A|  ---0--------------------------------0-----------0---3---2----  |
E|  ------------------------------------------------------------3  |

e|-------------------|
B|-------------------|
G|-------------------|
D|-------------------|
A|-------------------|
E|--3---0--5--5------|

                                                                (x2)
e|  -------------------------------------------------------------  |
B|  -------------------------------------------------------------  |
G|. ---------------------0---2----------------------------------- .|
D|. --------2--2----2-4-----------2---------2--2----------------- .|
A|  ---0--------------------------------0-----------0---3---2----  |
E|  ------------------------------------------------------------3  |

e|-------------------|
B|-------------------|
G|-------------------|
D|-------------------|
A|-------------------|
E|--3---0--5--5------|


This is "The Dawn Will Come" at faster pace. If you listen to the song you should be able to play
along at the right speed. Enjoy the tab.
************************************

| /   slide up
| \   slide down
| h   hammer-on
| p   pull-off
| ~   vibrato
| +   harmonic
| x   Mute note
| b   Bend
| pb  Pre-bend
| br  Bend release
| pbr Pre-bend release
| brb Bend release bend

************************************
Добавлено: 10.09.2015
Другие материалы по этой песне:
  • Аккорды и текст

Страница создана 10.09.2015
http://primanota.ru/misc-computer-games/dragon-age-inquisition-dawn-will-come-chords.htm
Привет, Гость.
Предлагаем пройти революционный курс по гитаре.
Подарок от PrimaNota.Ru, забирай!