PrimaNota.ru - самый крупный в мире бесплатный архив песенных текстов, аккордов, табулатур и нот


Misc Computer Games - Chrono Trigger - Sealed Door - бас-таба, видео

Регистрация Запомнить меня
Войти через:  Facebook Google Twitter Vk Yandex Mail.ru

Misc Computer Games - Chrono Trigger - Sealed Door - бас-таба, видео

Печатать
Просмотров: 97
Уроки эстрадного вокала в Санкт-Петербурге
Chrono Trigger - 

Tabbed by: XxThreeCheersxX
E-mail: burdickash@gmail.com

Tuning: Standard OR BEADG (five string)

NOTE: The notes on the B string are completely optional; don't even worry about tuning down to
play them if you don't have a five string.

Part I
G|---------------------------------------------------------------------------------------------------|
D|---------------------------------------------------------------------------------------------------|
A|-3~---------------------------3~--------------------------------3~---------------------------------|
E|--------------------------------------------3~--------4~-------------------------------------------|
B|-------------------(1)~---------------------------------------------------------------(1)~---------|

G|------------------------------------------------------------------------------|
D|------------------------------------------------------------------------------|
A|-1--------1---------1---------1---------4--------4---------4--------4---------|
E|---------------1-------------------1------------------4------------------4----|
B|------------------------------------------------------------------------------|

G|--------------------------------------------------------------------------------------------|
D|--------------------------------------------------------------------------------------------|
A|--------------------------------------------------------------------------------------------|
E|-1~----------------4~----------------2~----------------0~-----------------1~----------------|
B|--------------------------------------------------------------------------------------------|

Happy playing!

| /  slide up
| \  slide down
| h  hammer-on
| p  pull-off
| ~  vibrato
| +  harmonic
| x  Mute note
===============================================================================
Добавлено: 27.06.2015
Другие материалы по этой песне:
  • Аккорды и текст

Страница создана 27.06.2015
http://primanota.ru/misc-computer-games/chrono-trigger-sealed-door-chords.htm
Привет, Гость.
Предлагаем пройти революционный курс по гитаре.
Подарок от PrimaNota.Ru, забирай!