PrimaNota.ru - самый крупный в мире бесплатный архив песенных текстов, аккордов, табулатур и нот


Misc Computer Games - Chrono Trigger - Silent Light - бас-таба, видео

Регистрация Запомнить меня
Войти через:  Facebook Google Twitter Vk Yandex Mail.ru

Misc Computer Games - Chrono Trigger - Silent Light - бас-таба, видео

Печатать
Просмотров: 81
Chrono Trigger - Silent Light

Tabbed by: XxThreeCheersxX
E-mail: burdickash@gmail.com

Tuning: Standard

Note: Really exaggerate the slides and hammer-ons/pull-offs for the best effect!

Happy playing!

Intro
G|-2~---------2---|
D|----------4-----|
A|-------3--------|
E|--------------2-|

Part I 
G|--------3----------------------------------------3----------------------------5\3-|
D|------0---0-2~--------------2p1h2~-------------0---0-2~----0----------------------|
A|-------------------------------------------------------------1-----------6--------|
E|-3------------------3-3x------------------3--------------------3-4-4x------4------|

G|--------3----------------------------------------5\3----------------------|
D|------0---0-2~--------------2p1h2~-------------------1--------------------|
A|-----------------------------------------------6--------------------------|
E|-3------------------3-3x------------------4---------------4-4x----4-4x----|

G|--------4----------------------------------3---------------------------|
D|------0---0-2~---------------------------0---0-2~----------------------|
A|-----------------------------------------------------------------------|
E|-3------------------3-3x----3-3x----3------------------3-3x----3-3x----|

Part II
G|-----------------------------------------------------------------------------------|
D|-------5---------------------------3~------------------5---------6-----------------|
A|-3~----------3~--------------3~---------------------6-------4---------2--3~--------|
E|----------3------------1~----------------1--3--4-----------------------------------|

(Optional; cycles back to part I)
G|-------|
D|-4-----|
A|-------|
E|----2--|

| /  slide up
| \  slide down
| h  hammer-on
| p  pull-off
| ~  vibrato
| +  harmonic
| x  Mute note
===============================================================================
Добавлено: 26.06.2015
Другие материалы по этой песне:
  • Аккорды и текст

Страница создана 26.06.2015
http://primanota.ru/misc-computer-games/chrono-trigger-silent-light-chords.htm
Привет, Гость.
Предлагаем пройти революционный курс по гитаре.
Подарок от PrimaNota.Ru, забирай!