PrimaNota.ru - самый крупный в мире бесплатный архив песенных текстов, аккордов, табулатур и нот


Misc Computer Games - Cry Of Fear - Helvete - таба, видео

Регистрация Запомнить меня
Войти через:  Facebook Google Twitter Vk Yandex Mail.ru

Misc Computer Games - Cry Of Fear - Helvete - таба, видео

Печатать
Просмотров: 197
Уроки эстрадного вокала в Санкт-Петербурге
-------------------------------------------------------------------------------
                             Helevete - Cry Of Fear (Andreas Ronnberg)
-------------------------------------------------------------------------------
Tabbed by: gman136
E-mail: gman136@yahoo.com

Tuning: Standard

e|------------------------------------------------------------------------------|
B|-1----1-------1-------1------1------1------1------1-----0-----0-----0---------|
G|---2----2-------2-------2------0------0------0------0-----0-----0-----0-------|
D|-----2---2-------2-------2------2------2------2------2-----2-----2-----2------|
A|------------------------------------------------------------------------------|
E|------------------------------------------------------------------------------|

e|---------------------------------------------------------------------------|
B|-0------1-----1-----0-----0------------------------------------------------|
G|---0------0-----0-----0-----0----------------------------------------------|
D|-----2------2-----2-----2-----2---Main Melody------------------------------|
A|---------------------------------------------------------------------------|
E|---------------------------------------------------------------------------|

Bass bit that comes in at 0:35
e|---------------------------------------------------------------------------|
B|---------------------------------------------------------------------------|
G|---------------------------------------------------------------------------|
D|---------------------------------------------------------------------------|
A|-3~-----5--2~--3~--5~--7-777-7-777-5-5555--3-2-3~---5--2--2-2--2-2--2-2~---|
E|---------------------------------------------------------------------------|

e|---------------------------------------------------------------------------|
B|---------------------------------------------------------------------------|
G|---------------------------------------------------------------------------|
D|---------------------------------------------------------------------------|
A|-5~--7-777-7-777-5-5555-3-2-0~---------------------------------------------|
E|---------------------------------------------------------------------------|

************************************

| /   slide up
| \   slide down
| h   hammer-on
| p   pull-off
| ~   vibrato
| +   harmonic
| x   Mute note
| b   Bend
| pb  Pre-bend
| br  Bend release
| pbr Pre-bend release
| brb Bend release bend

************************************
Добавлено: 10.09.2015
Другие материалы по этой песне:
  • Аккорды и текст

Страница создана 10.09.2015
http://primanota.ru/misc-computer-games/cry-of-fear-helvete-chords.htm
Привет, Гость.
Предлагаем пройти революционный курс по гитаре.
Подарок от PrimaNota.Ru, забирай!