PrimaNota.ru - самый крупный в мире бесплатный архив песенных текстов, аккордов, табулатур и нот


Misc Computer Games - Darksiders 2 - Rose Scythe Trailer Soundtrack - таба, видео

Регистрация Запомнить меня
Войти через:  Facebook Google Twitter Vk Yandex Mail.ru

Misc Computer Games - Darksiders 2 - Rose Scythe Trailer Soundtrack - таба, видео

Печатать
Просмотров: 239
-------------------------------------------------------------------------------
         Misc Computer Games - Darksiders 2 Rose Scythe (trailer soundtrack)
-------------------------------------------------------------------------------
Tabbed by: badysiak
E-mail: patrykqstachurski@gmail.com

Tuning:DGCFAD

e|---------------------------------------------------------------------------|
B|---------------------------------------------------------------------------|
G|---8--------------------------------3--------------------------------------|
D|---8--(x4)----9----------6----------3--(x2)--------------------------------|
A|---6----------9--(x3)----6--(x4)----1--------------------------------------|
E|--------------7----------4-------------------------------------------------|

It's pretty accurate, feel free to add other parts.
Добавлено: 10.09.2015
Другие материалы по этой песне:
  • Аккорды и текст

Страница создана 10.09.2015
http://primanota.ru/misc-computer-games/darksiders-2-rose-scythe-trailer-soundtrack-chords.htm
Привет, Гость.
Предлагаем пройти революционный курс по гитаре.
Подарок от PrimaNota.Ru, забирай!