PrimaNota.ru - самый крупный в мире бесплатный архив песенных текстов, аккордов, табулатур и нот


Misc Computer Games - Chrono Trigger - Primitive Mountain - бас-таба, видео

Регистрация Запомнить меня
Войти через:  Facebook Google Twitter Vk Yandex Mail.ru

Misc Computer Games - Chrono Trigger - Primitive Mountain - бас-таба, видео

Печатать
Просмотров: 80
Chrono Trigger - Primitive Mountain

Tabbed by: XxThreeCheersxX
E-mail: burdickash@gmail.com

Tuning: Drop D

This has probably my favorite stand-alone bass riff from any Chrono Trigger song.

Happy playing!

Part I
G|------------------------------------------------|
D|----0--2-------0-------2-----0--2-------0-------|
A|-0--------0-3----2--0-----0--------0-3----2--0--| x 6
D|------------------------------------------------|

Part II
G|-----------------------------------------|
D|-----------------0--2--------------------|
A|-0~--------3~----------0~----------------|
D|-----------------------------------------|

G|-------------------------------------------|
D|-----------------0--2--1~------------------|
A|-0~--------3~------------------------------|
D|---------------------------------1~--------|

Play Part I again.

That's it!

| /  slide up
| \  slide down
| h  hammer-on
| p  pull-off
| ~  vibrato
| +  harmonic
| x  Mute note
===============================================================================
Добавлено: 16.06.2015
Другие материалы по этой песне:
  • Аккорды и текст

Страница создана 16.06.2015
http://primanota.ru/misc-computer-games/chrono-trigger-primitive-mountain-chords.htm
Привет, Гость.
Предлагаем пройти революционный курс по гитаре.
Подарок от PrimaNota.Ru, забирай!