PrimaNota.ru - самый крупный в мире бесплатный архив песенных текстов, аккордов, табулатур и нот


Misc Computer Games - Chrono Trigger - Robos Theme - бас-таба, видео

Регистрация Запомнить меня
Войти через:  Facebook Google Twitter Vk Yandex Mail.ru

Misc Computer Games - Chrono Trigger - Robos Theme - бас-таба, видео

Печатать
Просмотров: 48
Chrono Trigger - Robo's Theme

Tabbed by: XxThreeCheersxX
E-mail: burdickash@gmail.com

Tuning: Standard

Intro (no bass)

Part I
G|---------------------------------------------------------|
D|---------------------------------------------------------|
A|---------------------------------------------------------|
E|-3--3-3-3--3-3-5--5-5-5--5-5-7--7-7-7--7-7-7--7-7-5--5-5-|

G|---------------------------------------------------------|
D|---------------------------------------------------------|
A|-----------------------------5--5-5-5--5-5-5--5-5-5--5-5-|
E|-3--3-3-3--3-3-5--5-5-5--5-5-----------------------------|

G|---------------------------------------------------------|
D|---------------------------------------------------------|
A|---------------------------------------------------------|
E|-3--3-3-3--3-3-5--5-5-5--5-5-7--7-7-7--7-7-7--7-7-5--5-5-|

G|---------------------------------------------------------|
D|---------------------------------------------------------|
A|---------------------------------------------------------|
E|-3--3-3-3--3-3-5--5-5-5--5-5-7--7-7-7--7-7-7--7-7-7--7-7-|

Part II
G|---------------------------------------------------------|
D|---------------------------------------------------------|
A|-5--5-5-5--5-5-------------------------------------------| x 3
E|---------------2--2-2-2--2-2-3--3-3-3--3-3-5--5-5-5--5-5-|

G|---------------------------------------------------------|
D|---------------------------------------------------------|
A|---------------------------------------------------------|
E|-7--7-7-7--7-7-7--7-7-7--7-7-7--7-7-7--7-7-7--7-7-7--7-7-|

Repeat ad infinitum!  Happy playing!

| /  slide up
| \  slide down
| h  hammer-on
| p  pull-off
| ~  vibrato
| +  harmonic
| x  Mute note
===============================================================================
Добавлено: 27.06.2015
Другие материалы по этой песне:

Страница создана 27.06.2015
http://primanota.ru/misc-computer-games/chrono-trigger-robos-theme-chords.htm
Привет, Гость.
Предлагаем пройти революционный курс по гитаре.
Подарок от PrimaNota.Ru, забирай!