PrimaNota.ru - самый крупный в мире бесплатный архив песенных текстов, аккордов, табулатур и нот


Misc Computer Games - Chrono Trigger - Guardia Castle - бас-таба, видео

Регистрация Запомнить меня
Войти через:  Facebook Google Twitter Vk Yandex Mail.ru

Misc Computer Games - Chrono Trigger - Guardia Castle - бас-таба, видео

Печатать
Просмотров: 98
Chrono Trigger - Guardia Castle

Tabbed by: XxThreeCheersxX
E-mail: phantomhiveghost@gmail.com

Tuning: Standard

Intro
G|--------------------------------|
D|--------------------------------|
A|--------------------------------|
E|-3~----3~-----3~--3~--3-3-3-3---|

Part I
G|----------------------------------|
D|----------------------------------|
A|-3~----3~---3~-----3~---5~-----5~-|
E|-----3-----------3-----------5----|

Part II 
G|-------------------|
D|-2-4-5-4-2-4-5-57--|
A|-------------------| x 4
E|-------------------|

Part III
G|------------------------------------------|
D|---------------------2-222-2-2-2-222-2-2--|
A|-3-333-3-3-3-333-3-3----------------------| x 2
E|------------------------------------------|

Part IV (key change)
G|---------------------------------|
D|-------1~------------------------|
A|-1~-----------------5---5---5--5-|
E|------------4~----3---3---3---3--|

Repeat Parts I-IV as much as you want.
Happy playing
Добавлено: 23.11.2013
Другие материалы по этой песне:

Страница создана 10.06.2012
http://primanota.ru/misc-computer-games/chrono-trigger-guardia-castle-chords.htm
Привет, Гость.
Предлагаем пройти революционный курс по гитаре.
Подарок от PrimaNota.Ru, забирай!