PrimaNota.ru - самый крупный в мире бесплатный архив песенных текстов, аккордов, табулатур и нот


Misc Computer Games - Chrono Trigger - Guardia Millennial Fair - бас-таба, видео

Регистрация Запомнить меня
Войти через:  Facebook Google Twitter Vk Yandex Mail.ru

Misc Computer Games - Chrono Trigger - Guardia Millennial Fair - бас-таба, видео

Печатать
Просмотров: 139
Chrono Trigger - Guardia Millennial Fair

Tabbed by: XxThreeCheersxX
E-mail: burdickash@gmail.com

Tuning: Standard

This entire song is played pretty fast; be careful and listen to the timing!
Happy playing!

Part I
G|-------7--9--7-----------7-------------5--------------------------|
D|-----7---------7------7-----7--------5----------5-----------------|
A|-5----------------5------------5--3----------5--------------------|
E|------------------------------------------3--------5----5-5--5----|

Part II
G|--------7-------------7-------------7-------------7-----|
D|-----7-----7-------7-----7-------7-----7-------7-----7--|
A|-5------------5-------------5-------------5-------------| x 2
E|--------------------------------------------------------|

Part III x 2
G|--------7-------------7-------------7-------------7-----|
D|-----7-----7-------7-----7-------7-----7-------7-----7--|
A|-5------------5-------------5-------------5-------------| 
E|--------------------------------------------------------|

G|--------------------------------------7-------------7-----|
D|----------7-------------7----------7-----7-------7-----7--|
A|-------7-----7-------7-----7--5-------------5-------------|
E|--5-------------5-----------------------------------------|

G|--------7-------------7-------------7-------------7-----|
D|-----7-----7-------7-----7-------7-----7-------7-----7--|
A|-5------------5-------------5-------------5-------------| 
E|--------------------------------------------------------|

G|--------------------------------------7-----------7x---------|
D|----------7-------------7----------7-----7-------------------|
A|-------7-----7-------7-----7--5-------------5x---------5x----|
E|--5-------------5--------------------------------------------|

Part IV
G|-------------------------------------------------------------------|
D|---------------------------------------------7---------7-5-4-------|
A|----5-------7-------5-------7---7----5----5----5-----7-------7-5-4-|
E|-3----3--5----5--3----3--5----5---3----3----------5----------------|

G|-------------------------------------------------------7-5-----7--------7-5--------|
D|---------------------------------------------7-------5------5--------5-------5-----|
A|----5-------7-------5-------7---7----5----5----5--3---------------3-------------3--|
E|-3----3--5----5--3----3--5----5---3----3-------------------------------------------|

G|-----------------------------------|
D|------7--9--7----------7--9--7-----|
A|----7----------7-----7----------7--|
E|-5----------------5----------------|

Part V - no bass

Enjoy!

| /  slide up
| \  slide down
| h  hammer-on
| p  pull-off
| ~  vibrato
| +  harmonic
| x  Mute note
===============================================================================
Добавлено: 26.04.2015
Другие материалы по этой песне:

Страница создана 29.03.2012
http://primanota.ru/misc-computer-games/chrono-trigger-guardia-millennial-fair-chords.htm
Привет, Гость.
Предлагаем пройти революционный курс по гитаре.
Подарок от PrimaNota.Ru, забирай!