PrimaNota.ru - самый крупный в мире бесплатный архив песенных текстов, аккордов, табулатур и нот


Misc Computer Games - Chrono Trigger - Schalas Theme - бас-таба, видео

Регистрация Запомнить меня
Войти через:  Facebook Google Twitter Vk Yandex Mail.ru

Misc Computer Games - Chrono Trigger - Schalas Theme - бас-таба, видео

Печатать
Просмотров: 130
Chrono Trigger - 

Tabbed by: XxThreeCheersxX
E-mail: burdickash@gmail.com

Tuning: Standard

I tabbed both what would be the actual bass part, as well as the melody, because it's beautiful.

Happy playing!

BASS (come in after the melody has played 6 times)
G|-----------------------------------|
D|-----------------------------------|
A|-----------------------------------|
E|-6~--------------------------------|

G|---------------------------------------|
D|---------------------------------------|
A|---------------------------------------| x 4
E|-2~--------4~--------6~----------------|

That's basically it... adding some fills to it is fun though, just mess around.

MELODY
G|-15------13------15------17--13--|
D|-----15------15------15----------|
A|---------------------------------| x infinity
E|---------------------------------|

Happy playing!

| /  slide up
| \  slide down
| h  hammer-on
| p  pull-off
| ~  vibrato
| +  harmonic
| x  Mute note
===============================================================================
Добавлено: 26.04.2015
Другие материалы по этой песне:

Страница создана 28.04.2012
http://primanota.ru/misc-computer-games/chrono-trigger-schalas-theme-chords.htm
Привет, Гость.
Предлагаем пройти революционный курс по гитаре.
Подарок от PrimaNota.Ru, забирай!