PrimaNota.ru - самый крупный в мире бесплатный архив песенных текстов, аккордов, табулатур и нот


Misc Computer Games - Chrono Trigger - The Trial - бас-таба, видео

Регистрация Запомнить меня
Войти через:  Facebook Google Twitter Vk Yandex Mail.ru

Misc Computer Games - Chrono Trigger - The Trial - бас-таба, видео

Печатать
Просмотров: 93
Chrono Trigger - The Trial

Tabbed by: XxThreeCheersxX      
E-mail: phantomhiveghost@gmail.com

Tuning: Drop C (C G C F)

Note: Notes in parentheses are optional

Part I
F|----2------2------2---3--2--|
C|------3------3------3-------|
G|----------------------------| x 6
C|-0------0------0------------|

Part II
G|----2-------2-------2----3--2-|
D|---(3)-3---(3)-3---(3)-3------|
A|------------------------------|
E|-0-------0-------0------------|

G|----2-------3-------2---3----|
D|---(3)-3---(5)-5------3----3-|
A|-----------------0-----------|
E|-0-------5-------------------|

G|----2-------2-------2----3--2-|
D|---(3)-3---(3)-3---(3)-3------|
A|------------------------------|
E|-0-------0-------0------------|

G|----2-------0-------0----3--2-|
D|---(3)-3---(2)-2---(2)-2------|
A|---------0--------------------|
E|-0---------------0------------|

Part III
G|-7~-----------9-10~---7----------|      G|-7~---6~---|
D|-------7-8~-------------8~---(7)-|      D|-----------|
A|---------------------------------| x 2  A|-----------|
E|---------------------------------|      E|-----------|

Part IV
G|-4-2-4-0-2---4-2-4-0-2---0---0-------0---0-------|
D|-----------0-----------0---4---2-4-----4---2-4---|
A|-----------------------------------2-----------2-|
E|-------------------------------------------------|

G|--------------------------------------------------0---0-------0---0---0-2--|
D|-0-4---------0-4----------2-0-2-------2-0-2---------4---2-4-----4---2------|
A|-----0-2-4-------0-2-4----------3-0---------3-0-------------2--------------|
E|-----------4-----------4------------5-----------5--------------------------|

G|-------------------------------------------------|
D|-----------------------------------------------1-|
A|-1-0-1---0---1-0-1---0-3-4-3-4-1-3---4-3-4-1-4---|
E|-------5---0-------5---------------3-------------|

Part V
G|----------------------------------------------------------------|
D|-2--2---2-1--1----2--2---2-1--1---------------------------------|
A|---------------------------------5--5---5-4--4----5--5---5-4--4-|
E|----------------------------------------------------------------|


F|---5~---4~---0-2~---|
C|--------------------|
G|-0------------------|
C|--------------------|
Добавлено: 30.12.2013
Другие материалы по этой песне:

Страница создана 25.06.2012
http://primanota.ru/misc-computer-games/chrono-trigger-the-trial-chords.htm
Привет, Гость.
Предлагаем пройти революционный курс по гитаре.
Подарок от PrimaNota.Ru, забирай!