PrimaNota.ru - самый крупный в мире бесплатный архив песенных текстов, аккордов, табулатур и нот


Misc Computer Games - Chrono Trigger - The Hidden Truth - бас-таба, видео

Регистрация Запомнить меня
Войти через:  Facebook Google Twitter Vk Yandex Mail.ru

Misc Computer Games - Chrono Trigger - The Hidden Truth - бас-таба, видео

Печатать
Просмотров: 118
Chrono Trigger - The Hidden Truth

Tabbed by: XxThreeCheersxX
E-mail: burdickash@gmail.com

Tuning: Drop D

Intro
G|-----------------------------------------------------------------|
D|-----------------------------------------------------------------|
A|-----------------------------------------------------------------|
D|-1~--------1~--------1~--------1~--------1--1--1--1--1--1--1--1--|

Part I
G|---------------------------------------|
D|---------------------------------------|
A|---------------------------------------| x 2
D|-1----1-1-1----1-1-1----1-1-1-1--4--1--|

Part II
G|-----------------------------------------------------------------------------|
D|-----------------------------------------------------------------------------|
A|------------------------------1--1--1----------------------------------------|
D|-1----1-1-1----1-1-1----1-1-1----------1----1-1-6----6-6-8----8-8-8-8--8--8--|

G|-----------------------------------------------------------------------------|
D|-----------------------------------------------------------------------------|
A|------------------------------1--1--1-----------1----1-1---------------------|
D|-1----1-1-1----1-1-1----1-1-1----------1----1-1----------1----1-1-1----1-----|

Repeat Part II ad infinitum.

Happy playing!

| /  slide up
| \  slide down
| h  hammer-on
| p  pull-off
| ~  vibrato
| +  harmonic
| x  Mute note
===============================================================================
Добавлено: 26.04.2015
Другие материалы по этой песне:

Страница создана 11.04.2012
http://primanota.ru/misc-computer-games/chrono-trigger-the-hidden-truth-chords.htm
Привет, Гость.
Предлагаем пройти революционный курс по гитаре.
Подарок от PrimaNota.Ru, забирай!