PrimaNota.ru - самый крупный в мире бесплатный архив песенных текстов, аккордов, табулатур и нот


Misc Computer Games - Castlevania 3 - Clockwork - таба, бас-таба, видео

Регистрация Запомнить меня
Войти через:  Facebook Google Twitter Vk Yandex Mail.ru

Misc Computer Games - Castlevania 3 - Clockwork - таба, бас-таба, видео

Печатать
Просмотров: 115
Gtr I (E A D G B E) 
Gtr II (E A D G B E)

  Gtr I
  S S S  S S S S S S S S S S S S S   S S S S  S  S S S S S S S S  S S  S
|----------------------------------|-------------------------------------|
|----------------------------------|-------------------------------------|
|-7---5----------------------------|-----------------7-6---6-9-8----8-11-|
|---7----8-4-7-5-------5-8-----4-7-|-5-4-5-7--8--7-8-----7-------10------|
|----------------5-4-7-----3-6-----|-------------------------------------|
|----------------------------------|-------------------------------------|
|
| Gtr II
| S S S  S S S S S S S S S S S S S   Q       +S  S S S S S S S S  S S  S
|----------------------------------|-------------------------------------|
|----------------------------------|-------------------------------------|
|----------------------------------|-------------------------------------|
|-8---7--------------------------3-|-----------------5-------7-----------|
|---9---10-5-3-----------4---3-6---|-5-------(5)---5---7---7-----------6-|
|--------------6-3-0-3-6---5-------|-------------3-------5-----8--5-8----|


                     7/8
   ~~
   W                  S S S E +S  S S S E +S  E
|-------------------|--------------------------------|
|-------------------|--------------------------------|
|-12----------------|--------------------------------|
|-------------------|-5---5--------------------------|
|-------------------|---5---4-(4)-5-6-5-5-(5)-5------|
|-------------------|--------------------------------|
|
|  E E  E E E E E E   S S S E +S  S S S S  S  S S S
|-------------------|--------------------------------|
|-------------------|--------------------------------|
|--7---10---9---8---|--------------------------------|
|-------------------|---5----------------------------|
|----5----5---4---3-|-5---5---------6-5-----------5--|
|-------------------|-------3-(3)-3-----6--5--6-3----|


  S S S S S S S S S S S S S S S S   +S  S S S S S S S S S S S S S S S
|---------------------------------|-----------------------------------|
|---------------------------------|-----------------------------------|
|---------------------------------|-----------------------------------|
|---------------------------------|-----------------------------------|
|-5-------5-----5-6-5---------5-3-|-(3)---------------3---6---5---3---|
|---5-6-8---6-8-------8-6-4-5-----|-----6-5-3-2-3-5-6---3---3---3---3-|
|
| E   S S S S S S S S S S S S S S    E    S S S S S S S S S S S S S S
|---------------------------------|-----------------------------------|
|---------------------------------|-----------------------------------|
|---------------------------------|-----------------------------------|
|---------------------------------|-----------------------------------|
|-5---------5-----5-6-5---------5-|--3------------------3---6---5---3-|
|-----5-6-8---6-8-------8-6-4-5---|-------6-5-3-2-3-5-6---3---3---3---|


  E   E   E   E   E   E   E   E     S S S S S S S S Q   +S  S S  S
|---------------------------------|---------------------------------------|
|---------------------------------|---------------------------------------|
|---------------------------------|---------------------------------------|
|---------------------------------|---------------------------4-/7--------|
|-----5---3---6---5-------3-------|---4-----------4-5---(5)-5-------------|
|-6-------------------6-------5---|-3---0-3-6-3-6-------------------------|
|
| S S S S S S S S S S S S S S S S   S S S S S S S S S S  S  S S  S S S
|---------------------------------|---------------------------------------|
|---------------------------------|---------------------------------------|
|-------------5-------------------|---------------------------------------|
|-5---8---7-------8---5---5---5---|---------5---5-8-7-5-----7-4----4-7----|
|---5---5---5---5---5---5---6---6-|-7---4-7---7----------5-------5--------|
|---------------------------------|---6-----------------------------------|


  S S S  S  S S  S  S S S  S  S S S S  S    +S  S S  S  S  S  S S S S S S S S S S
|----------------------------------------|----------------------------------------|
|----------------------------------------|----------------------------------------|
|-7---------7-------7-8-7-----------7----|------------------------5---8---7---5---|
|---7-8-10----8-10--------10--8-7-8---10-|-(10)-8-7-----------7-8---5---5---5---5-|
|----------------------------------------|----------10--9-10----------------------|
|----------------------------------------|----------------------------------------|
|
| E   S  S  S S  S  S S S  S  S S S S  S     E    S  S  S  S  S S S S S S S S S S
|----------------------------------------|----------------------------------------|
|----------------------------------------|----------------------------------------|
|-7-----------7-------7-8--7-----------7-|--------------------------5---8---7---5-|
|-----7--8-10----8-10--------10-8-7-8----|--10----8--7----------7-8---5---5---5---|
|----------------------------------------|-------------10--9-10-------------------|
|----------------------------------------|----------------------------------------|


  E   E    E   E   E   E    E   E     Q       Q       Q     S S S  S
|-----------------------------------|-------------------------------------|
|----------------------8------------|---------8-------8-----7---7-10------|
|-----7--------8---7-------10---8---|-9-----------------------7-----------|
|-8-------10------------------------|-------------------------------------|
|-----------------------------------|-------------------------------------|
|-----------------------------------|-------------------------------------|
|
| S S S S  S S S S S S S S  S S S S   S S S S S S S S S S S S S S  S S
|-----------------------------------|-------------------------------------|
|-----------------------------------|-------------------------------------|
|--------------5--------------------|-----------------------7--------7----|
|-5---8----7-------8---5----5---5---|---------5---5-8-7-5-----7----7------|
|---5---5----5---5---5---5----6---6-|-7---4-7---7---------5-----5---------|
|-----------------------------------|---6---------------------------------|


  S S S S  H            E E   H       +E  E E   E
|---------------------------|-----------------------|
|---------------------------|---------------8---7---|
|-------5--7--------------7-|-5-------(5)-5---------|
|-5-7-8-----------------5---|-----------------------|
|---------------------------|-----------------------|
|---------------------------|-----------------------|
|
| Q       +E  S S S S E E E   E E E E  E  E S S S S
|---------------------------|-----------------------|
|---------------------------|-----------------------|
|---------------------------|-----------------------|
|-------------------------5-|---5-4----5--4-------4-|
|-5-------(5)-------3-5-5---|-3-----3-------3-5-6---|
|-------------3-5-6---------|-----------------------|


  S S S S  H            E E   H       +E  +S  S  S  S   S S
|---------------------------|----------------------------------------|
|---------------------------|----------------------------------------|
|-------5--7--------------7-|-5-------(5)-(5)---11--8----------------|
|-5-7-8-----------------5---|-----------------7--------10-7----------|
|---------------------------|----------------------------------------|
|---------------------------|----------------------------------------|
|
| Q       +E  S S S S E E E   S S S E  S   S  S  E +S   S S S S S
|---------------------------|----------------------------------------|
|---------------------------|----------------------------------------|
|---------------------------|----------------------------------------|
|-------------------------5-|-------5--5---7--5--4-(4)---------------|
|-5-------(5)-------3-5-5---|-3---3-----------------------6-3--------|
|-------------3-5-6---------|---3-----------------------5-----5-2----|


  S S S S  H            E E   H       +E  E E   E
|---------------------------|-----------------------|
|---------------------------|---------------8---7---|
|-------5--7--------------7-|-5-------(5)-5---------|
|-5-7-8-----------------5---|-----------------------|
|---------------------------|-----------------------|
|---------------------------|-----------------------|
|
| Q       +E  S S S S E E E   E E E E  E  E S S S S
|---------------------------|-----------------------|
|---------------------------|-----------------------|
|---------------------------|-----------------------|
|-------------------------5-|---5-4----5--4-------4-|
|-5-------(5)-------3-5-5---|-3-----3-------3-5-6---|
|-------------3-5-6---------|-----------------------|


  S S S S  H            E E   H       +Q    S S S S
|---------------------------|------------------------------------|
|---------------------------|-------------------6-7--------------|
|-------5--6--------------6-|-7-------(7)---7-9------------------|
|-5-7-8-----------------8---|------------------------------------|
|---------------------------|------------------------------------|
|---------------------------|------------------------------------|
|
| Q       +E  S S S S E E E   S S S S  S  S S S S S S S S S S S
|---------------------------|------------------------------------|
|---------------------------|------------------------------------|
|---------------------------|------------------------------------|
|-------------------------5-|-7-5---7--5----7-5---7-4-----2-3-4--|
|-7-------(7)-------3-4-7---|-----5-------5-----5-----5-5--------|
|-------------3-5-6---------|------------------------------------|


  H               +Q        Q         +H                H
|-----------------------------------|-----------------------------------|
|-8---------------(8)-------7-------|-(7)---------------8---------------|
|-----------------------------------|-----------------------------------|
|-----------------------------------|-----------------------------------|
|-----------------------------------|-----------------------------------|
|-----------------------------------|-----------------------------------|
|
| S S S S S S S S  S  S S S S S S S    S  S S S S S S S S S S S S S S S
|-----------------------------------|-----------------------------------|
|-----------------------------------|-----------------------------------|
|---------------5--7----5-7-8-5-----|--8--5-------5-------------------5-|
|-5-4-5-7-8-7-8-------8---------7-4-|-------7-4-----8-7-----5-7-8-7-8---|
|-----------------------------------|-----------5---------5-------------|
|-----------------------------------|-------------------7---------------|


  +Q     S S  S S  S S  S S S S  S S
|----------------------------------------|
|-(8)------------------------------------|
|-------11-8------11-8-------------8-----|
|------------10-7------10-7---7-10-------|
|---------------------------9------------|
|----------------------------------------|
|
|  S  S  S S  S S  S S  S S S S  S S S S
|----------------------------------------|
|----------------------------------------|
|--------5-7--8-5-------8-5------------5-|
|-----8------------7-4------7-4----4-7---|
|--5-----------------------------5-------|
|----------------------------------------|


Добавлено: 28.06.2015
Другие материалы по этой песне:

Страница создана 27.06.2015
http://primanota.ru/misc-computer-games/castlevania-3-clockwork-chords.htm
Привет, Гость.
Предлагаем пройти революционный курс по гитаре.
Подарок от PrimaNota.Ru, забирай!