PrimaNota.ru - самый крупный в мире бесплатный архив песенных текстов, аккордов, табулатур и нот


Misc Computer Games - Batman - Stage 4 Laboratory Ruins - таба, бас-таба, видео

Регистрация Запомнить меня
Войти через:  Facebook Google Twitter Vk Yandex Mail.ru

Misc Computer Games - Batman - Stage 4 Laboratory Ruins - таба, бас-таба, видео

Печатать
Просмотров: 149
Gtr I (E A D G B E) 
Gtr II (E A D G B E)

  Q=150
  Gtr I
S  S  S  S  S  S  S  S  S  S  S  S  S  S  S  S    S  S  S  S  S  S  S  S  S  S  S  S  S  S  S  S
|13----12----10----------10----12----13----15----|13----12---10----------10----12----------12--|
|---10----10----10-13-10----10----10----10----10-|---10---10----10-13-10----10----10-13-10---10|
|------------------------------------------------|---------------------------------------------|
|------------------------------------------------|---------------------------------------------|
|------------------------------------------------|---------------------------------------------|
|------------------------------------------------|---------------------------------------------|


S  S  S  S  S  S  S  S  S  S  S  S  S  S  S  S    S  S  S  S  S  S  S  S  S  S  S  S  S  S  S  S
|13----12----10----------10----12----13----15----|13----12---10----------10----12----------12--|
|---10----10----10-13-10----10----10----10----10-|---10---10----10-13-10----10----10-13-10---10|
|------------------------------------------------|---------------------------------------------|
|------------------------------------------------|---------------------------------------------|
|------------------------------------------------|---------------------------------------------|
|------------------------------------------------|---------------------------------------------|

S  S  S  S  S  S  S  S  S  S  S  S  S  S  S  S    S  S  S  S  S  S  S  S  S  S  S  S  S  S  S  S
|13----12----10----------10----12----13----15----|13----12---10----------10----12----------12--|
|---10----10----10-13-10----10----10----10----10-|---10---10----10-13-10----10----10-13-10---10|
|------------------------------------------------|---------------------------------------------|
|------------------------------------------------|---------------------------------------------|
|------------------------------------------------|---------------------------------------------|
|------------------------------------------------|---------------------------------------------|
|
| Gtr II
|  W                                                 W
|-------------------------------------------------|---------------------------------------------|
|-------------------------------------------------|---------------------------------------------|
|-------------------------------------------------|---------------------------------------------|
|-------------------------------------------------|---------------------------------------------|
|-------------------------------------------------|---------------------------------------------|
|-------------------------------------------------|---------------------------------------------|


S  S  S  S  S  S  S  S  S  S  S  S  S  S  S  S    S  S  S  S  S  S  S  S  S  S  S  S  S  S  S  S
|13----12----10----------10----12----13----15----|13----12---10----------10----12----------12--|
|---10----10----10-13-10----10----10----10----10-|---10---10----10-13-10----10----10-13-10---10|
|------------------------------------------------|---------------------------------------------|
|------------------------------------------------|---------------------------------------------|
|------------------------------------------------|---------------------------------------------|
|------------------------------------------------|---------------------------------------------|
|
|  W                                                 H                   S  S  S  S  S  S  S  S
|-------------------------------------------------|---------------------------------------------|
|-------------------------------------------------|---------------------------------------------|
|-------------------------------------------------|---------------------------------------------|
|-------------------------------------------------|---------------------------------------------|
|-------------------------------------------------|----------------------3--5--------------3----|
|-------------------------------------------------|----------------------------3--5--1--3-------|


  E +S  S E E E  S E E +S    E +S  S E E E  S E E +S
|--------------------------|--------------------------|
|--------------------------|--------------------------|
|-7-(7)-7------------------|-7-(7)-7------------------|
|--------------------7-(7)-|--------------------------|
|-----------8---10---------|-----------8---10---7-(7)-|
|--------------------------|--------------------------|
|
| E +S  S E E E  S E E +S    E +S  S E E E  S E E +S
|--------------------------|--------------------------|
|--------------------------|--------------------------|
|--------------------------|--------------------------|
|--------------------------|--------------------------|
|-5-(5)-5---5----5---5-(5)-|-5-(5)-5--------5---3-(3)-|
|--------------------------|-----------5--------------|


  E +S  S E E E  S E E +S    E +S  S E E E  S E E +S
|--------------------------|---------------------------|
|--------------------------|---------------------------|
|-7-(7)-7------------------|-7-(7)-7-------------------|
|--------------------7-(7)-|---------------------------|
|-----------8---10---------|-----------8---10---7-(7)--|
|--------------------------|---------------------------|
|
| E +S  S E E E  S E E +S    E +S  S E E E  S E E +S
|--------------------------|---------------------------|
|--------------------------|---------------------------|
|--------------------------|---------------------------|
|--------------------------|---------------------------|
|-5-(5)-5---5----5---5-(5)-|-5-(5)-5--------5---3-(3)--|
|--------------------------|-----------5---------------|


  Q  +E  E E S  E S E    E S  E S  E  E S E S S S
|---------------------|---------------------------|
|---------------------|---------------------------|
|---------------------|---------------------------|
|-------------------7-|---------------------------|
|-8--(8)-8-8---10-----|-10---10---10-10---8---7---|
|---------------------|---------------------------|
|
| Q  +E  E E S  E S E    E S  E S  E  E S E S S S
|---------------------|---------------------------|
|---------------------|---------------------------|
|---------------------|---------------------------|
|---------------------|---------------------------|
|-------------------5-|---------------------------|
|-6--(6)-6-6----8-----|--8----8----8--8---8---8---|


   ~~
   W          S H    S S S S S S S
|-----------|-----------------------|
|-----------|-----------------------|
|-----------|--------------------5--|
|-----------|----------------5-7----|
|-----------|------------5-8--------|
|-10--------|--------5-8------------|
|
|  ~~
|  W          S H    S S S S S S S
|-----------|-----------------------|
|-----------|-----------------------|
|-----------|-----------------------|
|-----------|-----------------------|
|-----------|------------5-8-----3--|
|--5--------|--------5-8-----3-5----|


  E +S  S E E E  S E E +S    E +S  S E E E  S E E +S
|--------------------------|--------------------------|
|--------------------------|--------------------------|
|-7-(7)-7------------------|-7-(7)-7------------------|
|--------------------7-(7)-|--------------------------|
|-----------8---10---------|-----------8---10---7-(7)-|
|--------------------------|--------------------------|
|
| E +S  S E E E  S E E +S    E +S  S E E E  S E E +S
|--------------------------|--------------------------|
|--------------------------|--------------------------|
|--------------------------|--------------------------|
|--------------------------|--------------------------|
|-5-(5)-5---5----5---5-(5)-|-5-(5)-5--------5---3-(3)-|
|--------------------------|-----------5--------------|


                                                       ~~
  E +S  S E E E  S E E +S    E +S  S E E E  S S S S S  S
|--------------------------|-------------------------------|
|--------------------------|-------------------------------|
|-7-(7)-7------------------|-7-(7)-7-----------------------|
|--------------------7-(7)-|-------------------------------|
|-----------8---10---------|-----------8---10---7-8---10---|
|--------------------------|-------------------------------|
|
|                                                      ~~
| E +S  S E E E  S E E +S    E +S  S E E E  S S S S S  S
|--------------------------|-------------------------------|
|--------------------------|-------------------------------|
|--------------------------|-------------------------------|
|--------------------------|---------------------------2---|
|-5-(5)-5---5----5---5-(5)-|-5-(5)-5--------5---3-5--------|
|--------------------------|-----------5-------------------|


  ~~~~~~~~~            ~~~~~~~~
  +Q    +E   E  E S E S E   +H      E S E S E    S  S  S  S  S  S  S  S  S  S  S  S  S  S  S  S
|-------------------------|-------------------|-13----12----10----------10----12----13----15----|
|-------------------------|-------------------|----10----10----10-13-10----10----10----10----10-|
|-------------------7---9-|-(9)----10---9---7-|-------------------------------------------------|
|--------------10---------|-------------------|-------------------------------------------------|
|-(10)-(10)-10------------|-------------------|-------------------------------------------------|
|-------------------------|-------------------|-------------------------------------------------|
|
|~~~~~~~~~            ~~~~~~~~
|+Q    +E   E  E S E S E   +H      E S E S E    W
|------------------------|-------------------|-------------------------------------------------|
|------------------------|-------------------|-------------------------------------------------|
|----------------------5-|-(5)---------------|-------------------------------------------------|
|(2)---(2)--2--2---5-----|-------5---5---3---|-------------------------------------------------|
|------------------------|-------------------|-------------------------------------------------|
|------------------------|-------------------|-------------------------------------------------|


   S  S  S  S  S  S  S  S  S  S  S  S  S  S  S  S
|-13----12----10----------10----12----------12-----|
|----10----10----10-13-10----10----10-13-10----10--|
|--------------------------------------------------|
|--------------------------------------------------|
|--------------------------------------------------|
|--------------------------------------------------|
|
|  W
|--------------------------------------------------|
|--------------------------------------------------|
|--------------------------------------------------|
|--------------------------------------------------|
|--------------------------------------------------|
|--------------------------------------------------|


   S  S  S  S  S  S  S  S  S  S  S  S  S  S  S  S
|-13----12----10----------10----12----13----15----|
|----10----10----10-13-10----10----10----10----10-|
|-------------------------------------------------|
|-------------------------------------------------|
|-------------------------------------------------|
|-------------------------------------------------|
|
|  W
|-------------------------------------------------|
|-------------------------------------------------|
|-------------------------------------------------|
|-------------------------------------------------|
|-------------------------------------------------|
|-------------------------------------------------|


                                                        ~                    ~
   S  S  S  S  S  S  S  S  S  S  S  S  S  S  S  S   S E H    +E  +S  E   S E H    +E  +S  S S
|-13----12----10----------10----12----------12----|--------------------|----------------------|
|----10----10----10-13-10----10----10-13-10----10-|--------------------|----------------------|
|-------------------------------------------------|--------------------|----------------------|
|-------------------------------------------------|-5---5----(5)-(5)-6-|-5---5----(5)-(5)-3-4-|
|-------------------------------------------------|--------------------|----------------------|
|-------------------------------------------------|--------------------|----------------------|
|
|                                                       ~                    ~
|  W                                                S E H    +E  +S  E   S E H    +E  +S  S S
|-------------------------------------------------|--------------------|----------------------|
|-------------------------------------------------|--------------------|----------------------|
|-------------------------------------------------|--------------------|----------------------|
|-------------------------------------------------|--------------------|----------------------|
|-------------------------------------------------|-5---5----(5)-(5)-6-|-5---5----(5)-(5)-3-4-|
|-------------------------------------------------|--------------------|----------------------|


      ~                    ~
  S E H    +E  +S  E   S E H    +Q   +S
|--------------------|-------------------|
|--------------------|-------------------|
|--------------------|-------------------|
|-5---5----(5)-(5)-6-|-5---5----(5)--(5)-|
|--------------------|-------------------|
|--------------------|-------------------|
|
|     ~                    ~
| S E H    +E  +S  E   S E H    +Q   +S
|--------------------|-------------------|
|--------------------|-------------------|
|--------------------|-------------------|
|--------------------|-------------------|
|-5---5----(5)-(5)-6-|-5---5----(5)--(5)-|
|--------------------|-------------------|


      ~                      ~
  S E H    +E  +S  S S   S E H    +E  +S  S S
|----------------------|----------------------|
|----------------------|----------------------|
|----------------------|----------------------|
|-7---7----(7)-(7)-5-6-|-7---7----(7)-(7)-5-6-|
|----------------------|----------------------|
|----------------------|----------------------|
|
|     ~                      ~
| S E H    +E  +S  S S   S E H    +E  +S  S S
|----------------------|----------------------|
|----------------------|----------------------|
|----------------------|----------------------|
|----------------------|----------------------|
|-7---7----(7)-(7)-5-6-|-7---7----(7)-(7)-5-6-|
|----------------------|----------------------|


  S E S E S S S E S E S S    S E  S E  S E S S S S S S S
|-------------------------|------------------------------|
|-------------------------|------------------------------|
|-------------------------|----------------------------5-|
|-7---7---7---7---7---7---|-10---10---10-----------5-7---|
|-------------------------|--------------------5-8-------|
|-------------------------|----------------5-8-----------|
|
| S E S E S S S E S E S S    S E  S E  S E S S S S S S S
|-------------------------|------------------------------|
|-------------------------|------------------------------|
|-------------------------|------------------------------|
|-------------------------|------------------------------|
|-7---7---7---7---7---7---|--------------------5-8-----3-|
|-------------------------|--8----8----8---5-8-----3-5---|


S  S  S  S  S  S  S  S  S  S  S  S  S  S  S  S    S  S  S  S  S  S  S  S  S  S  S  S  S  S  S  S
|13----12----10----------10----12----13----15----|13----12---10----------10----12----------12--|
|---10----10----10-13-10----10----10----10----10-|---10---10----10-13-10----10----10-13-10---10|
|------------------------------------------------|---------------------------------------------|
|------------------------------------------------|---------------------------------------------|
|------------------------------------------------|---------------------------------------------|
|------------------------------------------------|---------------------------------------------|

S  S  S  S  S  S  S  S  S  S  S  S  S  S  S  S    S  S  S  S  S  S  S  S  S  S  S  S  S  S  S  S
|13----12----10----------10----12----13----15----|13----12---10----------10----12----------12--|
|---10----10----10-13-10----10----10----10----10-|---10---10----10-13-10----10----10-13-10---10|
|------------------------------------------------|---------------------------------------------|
|------------------------------------------------|---------------------------------------------|
|------------------------------------------------|---------------------------------------------|
|------------------------------------------------|---------------------------------------------|

S  S  S  S  S  S  S  S  S  S  S  S  S  S  S  S    S  S  S  S  S  S  S  S  S  S  S  S  S  S  S  S
|13----12----10----------10----12----13----15----|13----12---10----------10----12----------12--|
|---10----10----10-13-10----10----10----10----10-|---10---10----10-13-10----10----10-13-10---10|
|------------------------------------------------|---------------------------------------------|
|------------------------------------------------|---------------------------------------------|
|------------------------------------------------|---------------------------------------------|
|------------------------------------------------|---------------------------------------------|

S  S  S  S  S  S  S  S  S  S  S  S  S  S  S  S    S  S  S  S  S  S  S  S  S  S  S  S  S  S  S  S
|13----12----10----------10----12----13----15----|13----12---10----------10----12----------12--|
|---10----10----10-13-10----10----10----10----10-|---10---10----10-13-10----10----10-13-10---10|
|------------------------------------------------|---------------------------------------------|
|------------------------------------------------|---------------------------------------------|
|------------------------------------------------|---------------------------------------------|
|------------------------------------------------|---------------------------------------------|


Добавлено: 28.06.2015
Другие материалы по этой песне:

Страница создана 27.06.2015
http://primanota.ru/misc-computer-games/batman-stage-4-laboratory-ruins-chords.htm
Привет, Гость.
Предлагаем пройти революционный курс по гитаре.
Подарок от PrimaNota.Ru, забирай!