PrimaNota.ru - самый крупный в мире бесплатный архив песенных текстов, аккордов, табулатур и нот


Misc Computer Games - Bionic Commando - Fortress Area 8 - таба, бас-таба, видео

Регистрация Запомнить меня
Войти через:  Facebook Google Twitter Vk Yandex Mail.ru

Misc Computer Games - Bionic Commando - Fortress Area 8 - таба, бас-таба, видео

Печатать
Просмотров: 119
Gtr I (E A D G B E) 
Gtr II (E A D G B E) 

  Q=150
  Gtr I
   Q   +E   Q   +E   Q     +E  E Q  Q  Q
|-----------------------|-----------------|
|-----------------------|-----------------|
|--9---(9)--9---(9)--9--|--(9)---9--7--9--|
|-----------------------|-----------------|
|-----------------------|-----------------|
|-----------------------|-----------------|
|
| Gtr II
|  Q   +E   Q   +E   Q     +E  E Q  Q  Q
|-----------------------|-----------------|
|-----------------------|-----------------|
|-----------------------|-----------------|
|-10--(10)-10--(10)-10--|-(10)---9--9--9--|
|-----------------------|-----------------|
|-----------------------|-----------------|


   E H    E  E E   E E E E  E  E E  E
|----------------|--------------------|
|----------------|--------------------|
|--------------7-|-8-8-7-8------------|
|-10-7----7-10---|---------10-10-7----|
|----------------|-----------------10-|
|----------------|--------------------|
|
|  E H    E  E E   E E E E  E  E E  E
|----------------|--------------------|
|----------------|--------------------|
|----------------|--------------------|
|--7-------------|-7-7-7-7--6--6------|
|----7----7--7-7-|---------------7--7-|
|----------------|--------------------|


   Q   +E   Q   +E   Q     +E  E Q  Q  Q
|-----------------------|-----------------|
|-----------------------|-----------------|
|--9---(9)--9---(9)--9--|--(9)---9--7--9--|
|-----------------------|-----------------|
|-----------------------|-----------------|
|-----------------------|-----------------|
|
|  Q   +E   Q   +E   Q     +E  E Q  Q  Q
|-----------------------|-----------------|
|-----------------------|-----------------|
|-----------------------|-----------------|
|-10--(10)-10--(10)-10--|-(10)---9--9--9--|
|-----------------------|-----------------|
|-----------------------|-----------------|


   E H     E  E  E    E E  E E E E  E E
|------------------|--------------------|
|------------------|-10-----------------|
|----------9--8--9-|----9-10-8-9-7------|
|-10-7-------------|---------------10-9-|
|------------------|--------------------|
|------------------|--------------------|
|
|  E H     E  E  E    E E  E E E E  E E
|------------------|--------------------|
|------------------|--------------------|
|------------------|--------------------|
|--7------10-10-10-|--9-9--9-9-9-6--6-6-|
|----7-------------|--------------------|
|------------------|--------------------|


  Q   Q  Q  Q    E  E E E E E  E E    Q   Q  Q  Q     E  E  E  E E  E  E  E
|--------------|-------------------|---------------|------------------11-12-|
|--------------|-------------------|---------------|-------------9-12-------|
|--------------|------------7------|------9--7-----|----10--9---------------|
|-7--10--9-----|-7-10-9---9---10-7-|-10---------9--|-10-------10------------|
|-----------7--|--------7----------|---------------|------------------------|
|--------------|-------------------|---------------|------------------------|
|
| Q   Q  Q  Q    E  E E E E E  E E    Q   Q  Q  Q     E  E  E  E E  E  E  E
|--------------|-------------------|---------------|---------------------12-|
|--------------|-------------------|---------------|----------------9-12----|
|--------------|-------------------|---------------|-----7-------9----------|
|-----7--6-----|----7-6---6-9--7---|--7--10--9--6--|--7----10--7------------|
|-7------------|-7---------------7-|---------------|------------------------|
|-----------7--|--------7----------|---------------|------------------------|


  H     Q  E  E    H    Q  Q    H     Q  E  E    H     H
|---------------|-------------|---------------|-------------|
|------------10-|-------9-----|------------10-|-11----12----|
|----------9----|-11-------9--|----------9----|-------------|
|-7----10-------|-------------|-7----10-------|-------------|
|---------------|-------------|---------------|-------------|
|---------------|-------------|---------------|-------------|
|
| H     Q  E  E    H    Q  Q    H     Q  E  E    H     H
|---------------|-------------|---------------|-------------|
|---------------|-------------|---------------|-------------|
|---------------|--8----7-----|---------------|-10-----9----|
|-------7--9-10-|----------9--|-------7--9-10-|-------------|
|-7-------------|-------------|-7-------------|-------------|
|---------------|-------------|---------------|-------------|


  H     Q  E  E    H    Q  Q    H     Q  E  E    H     H
|---------------|-------------|---------------|-------------|
|------------10-|-------9-----|------------10-|-11----12----|
|----------9----|-11-------9--|----------9----|-------------|
|-7----10-------|-------------|-7----10-------|-------------|
|---------------|-------------|---------------|-------------|
|---------------|-------------|---------------|-------------|
|
| H     Q  E  E    H    Q  Q    H     Q  E  E    H     H
|---------------|-------------|---------------|-------------|
|---------------|-------------|---------------|-------------|
|---------------|--8----7-----|---------------|-10-----9----|
|-------7--9-10-|----------9--|-------7--9-10-|-------------|
|-7-------------|-------------|-7-------------|-------------|
|---------------|-------------|---------------|-------------|


  S S S S E S S S S E E E   S S S S E S S S S E E E
|-------------------------|-------------------------|
|-------------------------|-------------------------|
|-------------------------|-------------------------|
|-------------------------|-------------------------|
|---------------------6---|---------------------6---|
|-5-5-5-5-5-5-5-5-5-5---4-|-5-5-5-5-5-5-5-5-5-5---4-|
|
| S S S S E S S S S E E E   S S S S E S S S S E E E
|-------------------------|-------------------------|
|-------------------------|-------------------------|
|-------------------------|-------------------------|
|-------------------------|-------------------------|
|---------------------6---|---------------------6---|
|-5-5-5-5-5-5-5-5-5-5---4-|-5-5-5-5-5-5-5-5-5-5---4-|


  S S S S S S S S S S S S E   S S   S S S S S S S S S S S S Q
|---------------------------------|--------------------------------|
|---------------------------------|--------------------------------|
|---------------------------------|---5----------------------------|
|---7-5---5-------------------7-7-|-----7-5-7-5--------------------|
|-------7---7-5-------------------|-------------7-5-7-5------------|
|-5-------------8-8-8-5-3-5-------|-5-------------------8-3-5------|
|
| Q       S S S S S S S S S S S S   S S S S S S S S S S S E S S S
|---------------------------------|--------------------------------|
|---------------------------------|--------------------------------|
|---------------------------------|--------------------------------|
|-----------7-5---5---------------|---7-5---5----------------------|
|---------------7---7-5-----------|-------7---7-5---5-----------3--|
|---------5-------------8-8-8-5-3-|---------------8---8-5-3-1-0----|


  S S  E  +S  S  S  S   S  S  S  S Q         S S  E  +S   S S  S S  S  S S Q
|-----------------------------------------|-----------------------------------|
|-----------------------------------------|-----------------------------------|
|-----------------------------------------|----7--9--(9)----7--9-7-------7-9--|
|-7-9-10-(10)-7--9-10---9--7-----9-7------|-10-----------10--------10--9------|
|----------------------------10-----------|-----------------------------------|
|-----------------------------------------|-----------------------------------|
|
| Q        S  S  E     +S  S  S  S S S  S    S S  E  +S   S S  S S  S  S S Q
|-----------------------------------------|-----------------------------------|
|-----------------------------------------|-----------------------------------|
|-----------------------------------------|-----------------------------------|
|----------7--9-10----(10)-7--9-10-9-7----|--7-9-10-(10)--7-9-10-9--7----9-7--|
|--------------------------------------10-|---------------------------10------|
|-----------------------------------------|-----------------------------------|


   S E  S  E    S  E    S  E    S  S S  S    S E  S E  S E  S E  S  S  S  S
|-----------------------------------------|--8---10---12---10-----------------|
|-10---12------13------12------10---------|----8----8----8----8-13-12-10------|
|----9-----9-------9-------9------12-9-12-|------------------------------12---|
|-----------------------------------------|-----------------------------------|
|-----------------------------------------|-----------------------------------|
|-----------------------------------------|-----------------------------------|
|
|  Q       S E     S E     S E     S E       S E  S E  S E  S E  S  S  S  S
|-----------------------------------------|-----------------------------------|
|---------10------12------13------12------|-10---12---13---12---10------------|
|------------9-------9-------9-------9----|----9----9----9----9----12--9-12---|
|-----------------------------------------|-----------------------------------|
|-----------------------------------------|-----------------------------------|
|-----------------------------------------|-----------------------------------|


   S  S  S  S  S  S  S  S  S   S  S  E    S  S  S    S  S  S  S  S  S  S  S  S   S  S  E    S  S  S
|-------------------------------------------------|-----------------------------------17------------|
|-----------------------------------16---15-------|-------------------------17-----17------16-15----|
|-14----14-17-14----14-17-14-----14---------17----|-14----14-17-14----14-17-----17---------------17-|
|----17----------17-----------17---------------17-|----17----------17-------------------------------|
|-------------------------------------------------|-------------------------------------------------|
|-------------------------------------------------|-------------------------------------------------|
|
|  H                      +Q           Q             H                      +Q           Q
|-------------------------------------------------|-------------------------------------------------|
|-------------------------------------------------|-------------------------------------------------|
|-------------------------------------------------|--------------------------------------8----------|
|--------------------------------------6----------|--7----------------------(7)---------------------|
|--7----------------------(7)---------------------|-------------------------------------------------|
|-------------------------------------------------|-------------------------------------------------|


   S  S  S  S  S  S  S  S  S  S  S  S  S  S  S  S    S  S  S  S  S  S  S  S  S  S  S  S  S  S  S  S
|-------------------------------------------------|----------------------------------------------------|
|-17-16-15----17-16-15----------------------------|----------------------------------------------------|
|----------17----------17-14-13-------14-13-------|----------------------------------------------------|
|-------------------------------15-14-------15-14-|-12-11-12-11-12-11-12-11-14-13-14-13-14-13-14-13----|
|-------------------------------------------------|----------------------------------------------------|
|-------------------------------------------------|----------------------------------------------------|
|
|  H                       H                         Q           Q           Q           Q
|-------------------------------------------------|----------------------------------------------------|
|-------------------------10----------------------|--9-------------------------------------------------|
|--9----------------------------------------------|--------------8-----------7-------------------------|
|-------------------------------------------------|-------------------------------------10-------------|
|-------------------------------------------------|----------------------------------------------------|
|-------------------------------------------------|----------------------------------------------------|


   S  S  S  S  S S  S S S S  S S  S S  S S   W
|------------------------------------------|---------------------------|
|--------------------------------10-9--8-9-|---------------------------|
|-----------------------9-8--9-8-----------|-9-------------------------|
|-------------10-9-10-9--------------------|---------------------------|
|-12-11-12-11------------------------------|---------------------------|
|------------------------------------------|---------------------------|
|
|  E     E     E    E   E    E    E    E     S S S S S  S S S S S E Q
|---------------------------------8---10---|---------------------------|
|-----------------------9---10-------------|------------------9--------|
|--------------8----9----------------------|--------------7-9----------|
|--7----10---------------------------------|-------6-9-10--------------|
|------------------------------------------|-7-7-9---------------------|
|------------------------------------------|---------------------------|


  E   E   E    E   E   E E E    W
|----------------------------|------------------------------|
|------------------9---------|------------------------------|
|-----9---8----9-------9-8-9-|------------------------------|
|----------------------------|-10---------------------------|
|----------------------------|------------------------------|
|----------------------------|------------------------------|
|
| S S S S S  S S S S S E Q      S S S S S S S  S  S S E Q
|----------------------------|------------------------------|
|------------------9---------|-------------------10---------|
|--------------7-9-----------|------------------------------|
|-------6-9-10---------------|------------7-9-10------------|
|-7-7-9----------------------|----------7-------------------|
|----------------------------|--5-5-7-8---------------------|


  E    E    S  S  S  S  E    E  E  E    S  S Q         S  S  S  S  S S  S  S  S S
|------------------------------------|--------------------------------------------|
|------------------------------------|----------------10-10-----------------------|
|------------------------------------|-------9-----------------------9----------9-|
|-----10---10-12-10--9-10------------|-10-12-------------------10-12------10-12---|
|---------------------------12-10----|----------------------12---------12---------|
|---------------------------------12-|--------------------------------------------|
|
| S S  S S  S  S  S  S  S S  E  Q       S  S S S S  S  S  S  S  S  E    Q
|------------------------------------|--------------------------------------------|
|----------------------10------------|-----------------------9--------------------|
|------------------------------------|-----------------7--9-----------------------|
|--------------7--9-10---------------|---------6-9-10-----------------------------|
|-----------7------------------------|--7--7-9------------------------------------|
|-5-5--7-8---------------------------|--------------------------------------------|


   S  S Q         S  S  S  S  S S  S  S  S S   S S S S S S S  S  S S S S S S S S
|--------------------------------------------|------------------------------------|
|----------------10-10-----------------------|------------------------------------|
|-------9-----------------------9----------9-|------------------------------------|
|-10-12-------------------10-12------10-12---|------------------------------------|
|----------------------12---------12---------|-8-7-6-7-8-7-6--7--8-7-6-7-8-7-6-7--|
|--------------------------------------------|------------------------------------|
|
|  S  S S S S  S  S  S  S  S  E    Q           S S S S S S S  S  S S E Q
|--------------------------------------------|------------------------------------|
|-----------------------9--------------------|------------------10----------------|
|-----------------7--9-----------------------|------------------------------------|
|---------6-9-10-----------------------------|-----------7-9-10-------------------|
|--7--7-9------------------------------------|---------7--------------------------|
|--------------------------------------------|-5-5-7-8----------------------------|


  Q  Q   Q  Q
|----------------|
|----------------|
|-----------7----|
|-7--9--10-------|
|----------------|
|----------------|
|
| Q  Q   Q  Q
|----------------|
|----------------|
|----------------|
|----------------|
|-----------5----|
|-5--7---8-------|


Добавлено: 28.06.2015
Другие материалы по этой песне:

Страница создана 27.06.2015
http://primanota.ru/misc-computer-games/bionic-commando-fortress-area-8-chords.htm
Привет, Гость.
Предлагаем пройти революционный курс по гитаре.
Подарок от PrimaNota.Ru, забирай!