PrimaNota.ru - самый крупный в мире бесплатный архив песенных текстов, аккордов, табулатур и нот


Misc Computer Games - Blaster Master - Area 6 - таба, бас-таба, видео

Регистрация Запомнить меня
Войти через:  Facebook Google Twitter Vk Yandex Mail.ru

Misc Computer Games - Blaster Master - Area 6 - таба, бас-таба, видео

Печатать
Просмотров: 143
Blaster Master - Area 6

Gtr I (E A D G B E) - Main Melody
Gtr II (B E A D G B E) - Accompaniment, 7 string required for literally 3 notes

  Gtr I
  E S S S E E E S E E   E S S S E E E S E E
|---------------------|---------------------|
|---------------------|---------------------|
|---------------------|---------------------|
|-5-5-5-5-5-5-5-5-5-5-|-5-5-5-5-5-5-5-5-5-5-|
|-------8-8-7-7-7-6-6-|-------8-8-7-7-7-6-6-|
|---------------------|---------------------|


  E S S S E E E S E E   E S S S E E E S E E
|---------------------|----------------------|
|---------------------|----------------------|
|-5-5-5-5-5-5-5-5-5-5-|-5-5-5-5-5-5-5-5-5-5--|
|-------8-8-7-7-7-6-6-|-------8-8-7-7-7-6-6--|
|---------------------|----------------------|
|---------------------|----------------------|


  E S S S S S E E S E E   E S S S S S E E S E E
|-----------------------|-----------------------|
|-8-8-8-8-8-8-8-8-8-8-8-|-8-8-8-8-8-8-8-8-8-8-8-|
|-----------------------|-----------------------|
|-5-5-5-5-5-5-5-5-5-5-5-|-5-5-5-5-5-5-5-5-5-5-5-|
|-----------------------|-----------------------|
|-----------------------|-----------------------|


  E S S S S S S S S S S E E   E S S S S S S S S S S E E
|---------------------------|---------------------------|
|---------------------------|---------------------------|
|---------------------------|---------------------------|
|-------1-0-----------------|-------1-0-----------------|
|-3---3-----3-1---1-3-----1-|-3---3-----3-1---1-3-----1-|
|-----------------------3---|-----------------------3---|


  E S S S S S S S S S S E E   E S S S S S S S S S S S S S S
|---------------------------|---------------------------------|
|---------------------------|---------------------------------|
|---------------------------|---------------------------------|
|-------1-0-------------1-3-|-5---5-3-------3-------3---------|
|-3---3-----3-1---1-3-------|---------6-5-3---6-5-3---6-5-3---|
|---------------------------|---------------------------------|


  S S S S S S S S S S S S S S S S   H    +Q   +E  +S   S
|---------------------------------|-----------------------|
|---------------------------------|-----------------------|
|---------------------------------|-----------------------|
|---------------------------------|--------------------5--|
|-5-6-8-6-5-6-8-6-5-6-8-6-5-----5-|-----------------------|
|---------------------------8-6---|-8----(8)--(8)-(8)-(8)-|


                                    \1
  S S S S S S S S S S S S S S S S   W
|---------------------------------|-------|
|---------------------------------|-------|
|-3---5---3---5---3---5---3---5---|-------|
|-6-5-8-5-6-5-8-5-6-5-8-5-6-5-8-5-|-------|
|---------------------------------|-------|
|---------------------------------|-0-----|


  Gtr I
  E S S S S S S S S S S E E   E S S S S S S S S S S E E
|---------------------------|---------------------------|
|---------------------------|---------------------------|
|---------------------------|---------------------------|
|-------1-0-----------------|-------1-0-----------------|
|-3---3-----3-1---1-3-----1-|-3---3-----3-1---1-3-----1-|
|-----------------------3---|-----------------------3---|
|
| Gtr II
| E S S S S S S S S S S E E   E S S S S S S S S S S E E
|---------------------------|---------------------------|
|---------------------------|---------------------------|
|---------------------------|---------------------------|
|---------------------------|---------------------------|
|-------3-1-----------------|-------3-1-----------------|
|-3---3-----1-1---1-1-----3-|-3---3-----1-1---1-1-----3-|
|-----------------------3---|-----------------------3---|


  E S S S S S S S S S S E E   E S S S S S S S S S S S S S S
|---------------------------|---------------------------------|
|---------------------------|---------------------------------|
|---------------------------|---------------------------------|
|-------1-0-------------1-3-|-5---5-5-5-5-5-5-5-5-5-5-5-5-5---|
|-3---3-----3-1---1-3-------|-3---3-3-3-3-3-3-3-3-3-3-3-3-3---|
|---------------------------|---------------------------------|
|
| E S S S S S S S S S S E E   E S S S S S S S S S S S S S S
|---------------------------|---------------------------------|
|---------------------------|---------------------------------|
|---------------------------|---------------------------------|
|---------------------------|-5---5-5-5-5-5-5-5-5-5-5-5-5-5---|
|-------3-1-------------3-3-|-3---3-3-3-3-3-3-3-3-3-3-3-3-3---|
|-3---3-----1-1---1-1-------|---------------------------------|
|---------------------------|---------------------------------|


  E S S S S S S S S S S S S S S   E S S S S S S E E E E
|-------------------------------|-----------------------|
|-------------------------------|-8-8-8---8-8-8-6-------|
|-------------------------------|-----------------8-7-5-|
|-5---5-5-5-5-5-5-5-5-5-5-5-5-5-|-----------------------|
|-3---3-3-3-3-3-3-3-3-3-3-3-3-3-|-----------------------|
|-------------------------------|-----------------------|
|
| E S S S S S S S S S S S S S S   E S S S S S S E E E E
|-------------------------------|-----------------------|
|-------------------------------|-----------------------|
|-------------------------------|-----------------------|
|-5---5-5-5-5-5-5-5-5-5-5-5-5-5-|-5-5-5---5-5-5-3-------|
|-3---3-3-3-3-3-3-3-3-3-3-3-3-3-|-----------------6-5-3-|
|-------------------------------|-----------------------|
|-------------------------------|-----------------------|


  E S S S S S S E E S S S S   W
|---------------------------|------|
|-6-6-6---6-6-6-------------|------|
|---------------8-7-5---5-7-|-5----|
|---------------------8-----|------|
|---------------------------|------|
|---------------------------|------|
|
| E S S S S S S E E S S S S   W
|---------------------------|------|
|---------------------------|------|
|---------------------------|------|
|-3-3-3---3-3-3-------------|------|
|---------------6-5-3---3-5-|-3----|
|---------------------6-----|------|
|---------------------------|------|


  W           S S S S S S S S S S S S S S S S
|-----------|---------------------------------|
|-----------|---------------------------------|
|-----------|---------------------------------|
|-----------|---------------------------------|
|-----------|-3---1-3---3-----3---1-3-------1-|
|-5---------|---3---------1-3---3-------1-3---|
|
| \1
| ~~
| W           S S S S S S S S S S S S S S S S
|-----------|---------------------------------|
|-----------|---------------------------------|
|-----------|-5---3-5---5-----5---3-5-------3-|
|-----------|---5---------3-5---5-------3-5---|
|-----------|---------------------------------|
|-7---------|---------------------------------|
|-0---------|---------------------------------|


  S S S S S S S S S S S S S S S S   S S S S S S S S S S S S S S S S
|---------------------------------|---------------------------------|
|---------------------------------|---------------------------------|
|-----------------------3---------|---------------------------------|
|-------------------5-3---5-3-----|---------------------------------|
|-3---1-3-------1-3-----------6-5-|-3---1-3---3-----3---1-3-------1-|
|---3-------1-3-------------------|---3---------1-3---3-------1-3---|
|
| S S S S S S S S S S S S S S S S   S S S S S S S S S S S S S S S S
|-----------------------6---------|---------------------------------|
|-------------------8-6---8-6-----|---------------------------------|
|-5---3-5-------3-5-----------8-7-|-5---3-5---5-----5---3-5-------3-|
|---5-------3-5-------------------|---5---------3-5---5-------3-5---|
|---------------------------------|---------------------------------|
|---------------------------------|---------------------------------|
|---------------------------------|---------------------------------|


  S S S S S S S S S S S S S S S S
|------------------------------------|
|------------------------------------|
|-----------------------3------------|
|-------------------5-3---5-3--------|
|-3---1-3-------1-3-----------6-5----|
|---3-------1-3----------------------|
|
| S S S S S S S S S S S S S S S S
|-----------------------6------------|
|-------------------8-6---8-6--------|
|-5---3-5-------3-5-----------8-7----|
|---5-------3-5----------------------|
|------------------------------------|
|------------------------------------|
|------------------------------------|
Добавлено: 28.06.2015
Другие материалы по этой песне:

Страница создана 27.06.2015
http://primanota.ru/misc-computer-games/blaster-master-area-6-chords.htm
Привет, Гость.
Предлагаем пройти революционный курс по гитаре.
Подарок от PrimaNota.Ru, забирай!