PrimaNota.ru - самый крупный в мире бесплатный архив песенных текстов, аккордов, табулатур и нот


Misc Computer Games - Back To The Future 2 3 - 1985 Theme - таба, бас-таба, видео

Регистрация Запомнить меня
Войти через:  Facebook Google Twitter Vk Yandex Mail.ru

Misc Computer Games - Back To The Future 2 3 - 1985 Theme - таба, бас-таба, видео

Печатать
Просмотров: 111
Gtr I (E A D G B E) 

  Q=140
  Gtr I
  W          W          W          W
|----------|----------|----------|----------|
|----------|----------|----------|----------|
|----------|----------|----------|----------|
|----------|----------|----------|----------|
|----------|----------|----------|----------|
|----------|----------|----------|----------|


  W          W          W          W
|----------|----------|----------|------|
|----------|----------|----------|------|
|----------|----------|----------|------|
|----------|----------|----------|------|
|----------|----------|----------|------|
|----------|----------|----------|------|


  W          W          E  E E  E E  E E E   +E   E E  E E  E E E
|----------|----------|--------------------|----------------------|
|----------|----------|--------------------|----------------------|
|----------|----------|-8-10-8----8-10---8-|-(8)-10-8----8-10-8---|
|----------|----------|--------10----------|----------10--------8-|
|----------|----------|--------------------|----------------------|
|----------|----------|--------------------|----------------------|


   E  E Q  H      W          E  E E  E E  E E E   +E   E E  E E  E E E
|---------------|----------|--------------------|----------------------|
|---------------|----------|--------------------|----------------------|
|---------------|----------|-8-10-8----8-10---8-|-(8)-10-8----8-10-8---|
|-10-10---------|----------|--------10----------|----------10--------8-|
|---------------|----------|--------------------|----------------------|
|---------------|----------|--------------------|----------------------|


   ~~
   W          E H     E E  E   Q   E E  Q  E  E   E  E  E E E  E  E E
|-----------|----------------|------------------|---------------------|
|-----------|----------------|-9----------------|---------------------|
|-----------|-----------8-10-|----10-8-10--8----|---------------------|
|-10--------|--------10------|---------------10-|-8-10------8-10------|
|-----------|----------------|------------------|------11-8------11-8-|
|-----------|----------------|------------------|---------------------|


     ~~~~~~~~                                                           ~~
  E  Q   +E  H      E H    E  E E    Q  E  E Q   E E    Q  E  E E  E E  E
|-----------------|---------------|------------------|--------------------|
|-----------------|---------------|------------------|--------------------|
|-----------------|---------------|------------------|--------------------|
|-8-10--(10)------|-------------8-|-10--8----8-------|---------------8----|
|-----------------|--------8-11---|-------11----11-8-|-11--8----8-11---11-|
|-----------------|---------------|------------------|-------11-----------|


    ~~~~
   +Q   Q  H      W          W          W
|---------------|----------|----------|------|
|---------------|----------|----------|------|
|---------------|----------|----------|------|
|---------------|----------|----------|------|
|-(11)----------|----------|----------|------|
|---------------|----------|----------|------|


Добавлено: 28.06.2015
Другие материалы по этой песне:

Страница создана 27.06.2015
http://primanota.ru/misc-computer-games/back-to-future-2-3-1985-theme-chords.htm
Привет, Гость.
Предлагаем пройти революционный курс по гитаре.
Подарок от PrimaNota.Ru, забирай!